Guitar Tabs, Chords and Lyrics
Server problems seems to be fixed. Chordie has been experiencing problems with songs disappearing. These issues now seems to be fixed, but still verifying the fix. If you find anything strange, please email admin@chordie.com.


Who's Gonna Save Us?  The Living End

"(2)
Artist The Living End
Song Whos Gonna Save Us?
intro
 
 e-----------------
 b-----------------
 g-7-0-7-0-5-0-4-0- after that just as a lead in play
 d----------------- d5 twice
 a-----------------
 e-----------------

Verse
[G5]Its all around[D5] again
[G5]I just dont un[D5]derstand
[EM]Its seems a[C]ll i can[G5] take now
EM A5 EM B5 c5
And I know its late, But you know what they say now
[G5]Were under att[d5]ack now
[G5]Our work is al[D5]l cut out
[EM]Whatever h[C]appened in[G5] your eyes
[EM]And I know its [A5]late, [EM]But you kno[B5]w what [C5]they say now,
[C5]Whos gonna Save Us?[d5]
Chorus
[G5]Wheres the [D5]writing[G5] on the w[D5]all,
[EM]Whos go[C]nna s[G5]ave us?
[EM]Whos go[A5]nna provide us?
[EM]Whos go[B5]nna divide us?
[C5]Whos gonna Save Us?[D5]
pLAY VERSE AGAIN ONCE WITH A FEW NEW LYRICS
PLAY CHORUS AGAIN
SOLO
 
 e-------------------------------------------------------
 b------10-8-7-------10-8-7------------------------------
 g--8-8---------88-8--------8-888------------8-----------
 d--------------------------------10-8--8-10---10p8-10p8-
 e------------------------------------------------------------
 b------10-8-7-8^half------10-8-7-8^full----------------------
 g-8-88---------------8-88---------------10-8-10-8-10-8-7^full
 d------------------------------------------------------------
 e------------------
 b------------------
 g--7-0-7-0-5-0-7-0-
 d------------------ x8
 e------------------
 b------------------
 g--7-0-5-0-4-0-2-0-
 d------------------ x8

Play Verse
 
 b----3-------- add this riff in the verse

g-2h4-4p2-4p2- listen out for it!
Play Chorus
Outro
[D5] [D5] [G5]  
And thats it plz rate my tab
"

Important: The song above is NOT stored on the Chordie server. The original song is hosted at www.azchords.com. Chordie works as a search engine and provides on-the-fly formatting. Chordie does not index songs against artists'/composers' will. To remove this song please click here.

Text color:
Chord color:
Chord grids: 
Font size:    
Page size: 

A5 B5 C C5 D5 Em G5
Rate #1 of 6 versions

Login - add to songbook

SHARE PAGE  



You need to log in to post comments