Guitar Tabs, Chords and Lyrics
Update 25:10. 13:00. Site is back up running again. Songbooks are recovered. Woring on getting search back up..


Beautiful World  The Mary Dream

 
 ----------------------------------------------------------------------------
 ----------------------------------------------------------------------------

INTRO/VERSE
 
 e|----------0---4------0-----------12----|
 B|--2-----2--------2--------9-10-9-------|
 G|---------------------------------------|
 D|---------------------------------------|
 A|---------------------------------------|
 E|---------------------------------------|

PRE CHORUS
 
 e|-----10-------------------------------|
 B|--=-----------------------------------|
 G|--11----9-----------------------------|
 D|--------------------------------------|
 A|--------------------------------------|
 E|--------------------------------------|

BRIDGE
 
 e|--------------------------------------|
 B|--------------------------------------|
 G|--11---15\17----11‚??-15\17/5-----------|
 D|--------------------------------------|
 A|--9----12\15----9---12\15/3-----------|
 E|--------------------------------------|
 e|--------------------------------------|
 B|--------------------------------------|
 G|--11---15\17----11‚??-15\17-------------|
 D|--------------------------------------|
 A|--9----12\15----9---12\15-------------|
 E|--------------------------------------|
 e|--------------------------------------------|
 B|--------------------------------------------|
 G|--10‚??10‚??10-10‚??10\5-5--5-10-10-10-10-10\5-5-5|
 D|--------------------------------------------|
 A|--8--8--8‚??-8--8\-3-3-3--8--8--8--8‚??-8\3‚??3-3-|
 E|--------------------------------------------|
 e|--------------------------------------|
 B|--------------------------------------|
 G|--9--9--9--9‚??-9--9--------------------|
 D|--------------------------------------|
 A|--7--7‚??-7--7--7--7--------------------|
 E|--------------------------------------|

INTRO (2nd Acoustic Guitar Plays G Capo 4)
[A]VERSE
[A]I know that there‚??s no such thing as no

[Fm]I know there‚??s a million answers to every question

[D]I know all you want for me is good

[A]But I can‚??t remember what I should
PRE- CHORUS
And it‚??s all good[D]
And it‚??s[B] right in front of me

It‚??s not so[D] bad,
it goes as f[G]ar as I can see
CHORUS
It‚??s a[Fm] beautiful world

[Em]Despite what you‚??ve heard

It‚??s a b[B]eautiful wor[G]ld
VERSE II
[A]Today as I walked around this place

[Fm]I looked and in everything I saw your face

[D]You‚??re here right beside me every step

[A]You laugh ‚??cause I haven‚??t got it yet
PRE CHORUS
But it[D]‚??s all good
and it‚?[B]?s right in front of me
It‚??s not[D] so bad,
it goes as [G]far as I can see
CHORUS
It‚??s [Fm]a beautiful world

Despit[Em]e what you‚??ve heard

It‚??s [B]a beautiful wor[G]ld

It‚??s [Fm]a beautiful place

Past [Em]the noise and the haste

It‚??s[B] a beautiful wo[G]rld
BRIDGE
[Fm]Every blade of grass

[C]Reminds me of how vast

[Fm]Everything you make, it moves[C] me

[Fm]Every day that passes

[C]Is better than the last

[Fm]Everything you make, it m[C]oves me[Em]
PRECHORUS
[D]And it‚??s all good
[B]and it‚??s right in front of me

[D]It‚??s not so bad,
[G]it goes as far as I can see
CHORUS
[Fm]It‚??s a beautiful world

[Em]Despite what you‚??ve heard

[B]It‚??s a beautiful wo[G]rld
[Fm]It‚??s a beautiful place

[Em]If you get past the hate

[B]It‚??s a beautiful wor[G]ld
OUTRO
[G]But if only you were here

Important: The song above is NOT stored on the Chordie server. The original song is hosted at www.azchords.com. Chordie works as a search engine and provides on-the-fly formatting. Chordie does not index songs against artists'/composers' will. To remove this song please click here.

Text color:
Chord color:
Chord grids: 
Font size:    
Page size: 

A B C D Em Fm G
Rate #1 of 1 versions

Login - add to songbook

SHARE PAGE  




You need to log in to post comments