Guitar Tabs, Chords and Lyrics
Update 25:10. 13:00. Site is back up running again. Songbooks are recovered. Woring on getting search back up..


How You Love Me  The Mary Dream

 
 -------------------------------------------------------------------------------
 -------------------------------------------------------------------------------

Tuning:Standard
INTRO/VERSE Lead (Electric)
 
 e|---------9-------------9--------------|
 B|-----10-----10-----9-------9----------|
 G|--------------------------------------|
 D|--0-----------------------------------|
 A|----------------0---------------------|
 E|--------------------------------------|

PRECHORUS (Electric)
 
 e|--0------------0----------------------|
 B|----2--------2------------------------|
 G|-------2--2---------------------------|
 D|--------------------------------------|
 A|--------------------------------------|
 E|--------------------------------------|

CHORUS (Electric)
 
 e|--0-------0-------0-------0-----------|
 B|----2--------2-----2--------2---------|
 G|-------2--------2----2--------2-------|
 D|--------------------------------------|
 A|--------------------------------------|
 E|--------------------------------------|

INTERLUDE (Electric)
X2
 
 e|-9---------9---------9--------9-------|
 B|----10--------10--------10------10----|
 G|--------9---------9--------9-------9--|
 D|--------------------------------------|
 A|--------------------------------------|
 E|--------------------------------------|
 e|--7------7--------7-------7-----------|
 B|----9-------9--------9-------9--------|
 G|------9--------9-------9--------9-----|
 D|--------------------------------------|
 A|--------------------------------------|
 E|--------------------------------------|
 e|-9-10---------------------------------|
 B|--------10-12-------------------------|
 G|--------------------------------------|
 D|--------------------------------------|
 A|--------------------------------------|
 E|--------------------------------------|

OUTRO (Electric)
 
 e|-9---------9---------9--------9-------|
 B|----10--------10--------10------10----|
 G|--------9---------9--------9-------9--|
 D|--------------------------------------|
 A|--------------------------------------|
 E|--------------------------------------|
 e|---7----7---------7------7-----------9|
 B|------9----9---------9------9----9-10-|
 G|-7-------------9-------9------9-------|
 D|------------------------9-------------|
 A|--------------------------------------|
 E|--------------------------------------|

INTRO
D Asus x2
VERSE I
It‚??s[D] funny[Asus],
how you [D]love me̷[Asus]2;
How you sh[D]owed up that day at my door&[Asus]#8232;
And I[D]‚??m not lonely anymor[Asus]e

It‚??[D]s funny[Asus],
how you l[D]ove me[Asus]
PRECHORUS
But it‚??s meant to [Fm]be, [Em]
you and me[B] [D]
CHORUS
‚??Cause we‚??re meant to be
[Asus]something
 more [Em]than what we are right now

[D]Something more than ev[Asus]erybody else

[Fm]Something special‚??s i[Em]n the air for us

[B]Something that is w[D]orth waiting for

VERSE II
[D]‚??Cause it‚??s m[Asus]eant to be

How you l[D]ove me&#[Asus]8232;
How you lo[D]ve me for the sm[Asus]allest things

And that ca[D]n‚??t be changed by[Asus] anything

It[D]‚??s [Asus]funny,
how you l[D]ove me[Asus]
PRECHORUS
But it‚??s meant to b[Fm]e, [Em]
you and me[B] [D]
CHORUS II
‚??Cause we‚??re meant to be
[Asus]something
more t[Em]han what we are right now

[D]Something more than ev[Asus]erybody else

[Fm]Something special‚??s i[Em]n the air for us

[B]Something that is wo[D]rth waiting for

[Asus]Something that is more[Em]232;
[D]Something that is spe[Asus]cial
[Fm]Something that is m[Em]ore

[B]Something that is s[D]pecial
INTERLUDE
B D Asus Em x4
How you love me
OUTRO
[B]  

Important: The song above is NOT stored on the Chordie server. The original song is hosted at www.azchords.com. Chordie works as a search engine and provides on-the-fly formatting. Chordie does not index songs against artists'/composers' will. To remove this song please click here.

Text color:
Chord color:
Chord grids: 
Font size:    
Page size: 

Asus B D Em Fm
Rate #1 of 2 versions

Login - add to songbook

SHARE PAGE  




You need to log in to post comments