Guitar Tabs, Chords and Lyrics
Update 25:10. 13:00. Site is back up running again. Songbooks are recovered. Woring on getting search back up..


Let Me Breathe  The Mary Dream

 
 -------------------------------------------------------------------------------
 -------------------------------------------------------------------------------

Tuning:Standard
VERSE Lead (Electric)
 
 e|--------------------------------------|
 B|--7‚??10/5--3\7‚??10/5‚??3/7----------------|
 G|--------------------------------------|
 D|--------------------------------------|
 A|--------------------------------------|
 E|--------------------------------------|

CHORUS x3 (Electric)
 
 e|--5-----5-----5-----5-----------------|
 B|-----7-----7-----7-----7--------------|
 G|--------------------------------------|
 D|--------------------------------------|
 A|--------------------------------------|
 E|--------------------------------------|
 e|--------------------------------------|
 B|--2-----2------2------2---------------|
 G|-----4-----4------4------4------------|
 D|--------------------------------------|
 A|--------------------------------------|
 E|--------------------------------------|

INTERLUDE (Electric)
 
 e|----3+-2+-0+-2+-5+-3+-2+--------9+-+10-+12/+9-|
 B|--3+------------------------------------------|
 G|----------------------------------------------|
 D|----------------------------------------------|
 A|----------------------------------------------|
 E|----------------------------------------------|

INTRO
G x2
VERSE
[G]If you tare down all that we have ma[Dsus]de again

[G]I think that I will break into a [Dsus]million pieces
BRIDGE
Just let me b[G]reathe

I need a release

[Dsus]  
Just let me beg[G]in

I need to dive in

And do this o[Dsus]n my own
CHORUS
Just let m[B]e leave,
Just let me go

Can‚??t[Em] lose myself like this anymore
Just [C]let me breathe,
Just let me go

Can‚??t[G] sacrifice myself anym[G]ore
VERSE II
[G]If I tell you only what you [Dsus]want to hear

T[G]hen who am I? I‚??m nothing more than just a[Dsus] friend for hire
BRIDGE II
I‚??m walking[G] away

‚??cause everything‚??s changed

This has come [Dsus]to its end
I‚??m counting the[G] days

I can‚??t even wait

To find my[Dsus]self again
CHORUS
Just le[B]t me leave,
Just let me go

Can‚??t[Em] lose myself like this anymore

Just le[C]t me breathe, Just let me go

[G]Can‚??t sacrifice myself anym[G]ore
INTERLUDE x2
[B] [Dsus] [Asus] [G]  
[Dsus] [Asus] [G] [G]  
Thought I knew you
CHORUS
Just [B]let me leave,
Just let me go

Can‚?[Em]?t lose myself like this anymore

Just l[C]et me breathe, Just let me go

Can‚??t[G] sacrifice myself anymore
End on G

Important: The song above is NOT stored on the Chordie server. The original song is hosted at www.azchords.com. Chordie works as a search engine and provides on-the-fly formatting. Chordie does not index songs against artists'/composers' will. To remove this song please click here.

Text color:
Chord color:
Chord grids: 
Font size:    
Page size: 

Asus B C Dsus Em G
Rate #1 of 1 versions

Login - add to songbook

SHARE PAGE  




You need to log in to post comments