Guitar Tabs, Chords and Lyrics
Update 25:10. 13:00. Site is back up running again. Songbooks are recovered. Woring on getting search back up..


Stay  The Mary Dream

 
 -------------------------------------------------------------------------------

Stay- The Mary Dream
 
 -------------------------------------------------------------------------------

Tuning: Standard
Electric: Capo 5
VERSE/BRIDGE (Electric)
 
 e|--2--------2--------2--------2--------|
 B|-----3--------3--------3--------3-----|
 G|--------2--------2--------2---------2-|
 D|--------------------------------------|
 A|--------------------------------------|
 E|--------------------------------------|
 e|--------------------------------------|
 B|--0--2-----0--2-----0--2-----0--2-----|
 G|--------2--------2--------2--------2--|
 D|--------------------------------------|
 A|--------------------------------------|
 E|--------------------------------------|

CHORUS (Electric)
 
 e|--------------------------------------|
 B|--------------------------------------|
 G|--------2-----------2--------2------2-|
 D|-----0----------0---------0-------0---|
 A|--0----------0---------0--------0-----|
 E|--------------------------------------|
 e|--5-----------------------------------|
 B|----3--2------------------------------|
 G|--------------------------------------|
 D|--------------------------------------|
 A|--------------------------------------|
 E|--------------------------------------|

SOLO (Electric)
 
 e|--------------------------------------|
 B|-----------------------------------7--|
 G|-----/7--6----------/7--6-------------|
 D|--4---------7\9--4---------7--9--4----|
 A|--------------------------------------|
 E|--------------------------------------|

INTRO
G Em Am x4
VERSE I
I??m st[G]ripped and I??m raw

I??v[Em]e got nothing more

You??re [G]going away
I [Em]wish you could stay
BRIDGE
Now I[C]??m down to th[Em]e core

And I[C]??ve got nothi[Em]ng more

And I wi[C]sh you could s[Em]tay

But you?[C]?re going away
PRECHORUS x 4
I wish you co[Am]uld stay[D]232;
[Am]Sta[D]y x2
CHORUS
I wish you could[C] stay&[D]#8232;
[C]Stay[D] x2
I wish it could[Am] be[D]
I wish it cou[Am]ld be[D]
[G]I wish it co[Em]uld be[Am] x 2
VERSE II
I??m [G]stripped and I??m raw

I??ve[Em] got nothing more

You??re[G] going away

I w[Em]ish you could stay
BRIDGE
Now I[C]??m down to th[Em]e core

Just [C]like I was b[Em]efore

And I [C]wish you cou[Em]ld stay

But y[C]ou??re going away
PRECHORUS x4
I wish you cou[Am]ld st[D]ay
[Am]Stay [D]x 2
CHORUS
I wish you could [C]sta[D]y
[C]Sta[D]y x2
I wish it cou[Am]ld be [D]x3
[G]I wis[Em]h it[Am] could be x2
INTERLUDE
G Em x 4
PRECHORUS x 4
I wish you could [Am]stay[D]
[Am]Stay [D]x 2
CHORUS
I wish you could st[C]ay[D]
C D

Stay x2
I wish it co[Am]uld [D]be x4
End on G

Important: The song above is NOT stored on the Chordie server. The original song is hosted at www.azchords.com. Chordie works as a search engine and provides on-the-fly formatting. Chordie does not index songs against artists'/composers' will. To remove this song please click here.

Text color:
Chord color:
Chord grids: 
Font size:    
Page size: 

Am C D Em G
Rate #1 of 2 versions

Jango Player

Login - add to songbook

SHARE PAGE  



You need to log in to post comments