Guitar Tabs, Chords and Lyrics
Server problems seems to be fixed. Chordie has been experiencing problems with songs disappearing. These issues now seems to be fixed, but still verifying the fix. If you find anything strange, please email admin@chordie.com.


A Small Reunion  The Naked and Famous

 
 <i></i>-------------------------------------------------------------------------------
 -------------------------------------------------------------------------------

Enjoy!
Tuning: standard
Capo: 4
[Csus4] [C] [Am] [Fm7] [G]  
 
 e|-------0-------0-------0-------0------x-------|
 B|-------1-------1-------1-------1------0-------|
 G|-------0-------0-------2-------2------0-------|
 D|-------3-------2-------2-------3------0-------|
 A|-------3-------3-------0-------3------2-------|
 E|-------x-------x-------x-------x------3-------|

There are a few hammer on's between C and Csus4 in the first verse:
 
 e|-------0-------|
 B|-------1-------|
 G|-------0-------|
 D|-------2h3-----|
 A|-------3-------|
 E|-------x-------|

It is difficult to tab out when they occur, so just listen to the song to figure it out!
You can play the bar chords for the chorus/heavy parts of the song if you wish, but I
think the standard chords sound fine.
Bar chords:
[C] [Am] [Fm7] [G]  
 
 e|-------x-------x-------x-------x-------|
 B|-------5-------x-------x-------x-------|
 G|-------5-------x-------2-------4-------|
 D|-------5-------7-------3-------5-------|
 A|-------3-------7-------3-------5-------|
 E|-------x-------5-------1-------3-------|

I don't mean to sound ungra[Csus4]teful
Shouldn't we both be in fr[C]ame?
For such a reconnecting ges[Csus4]ture
To be voyeurs in exc[Am]hange
We could say we didn't m[Fm7]ean it
We could dig up all the na[C]mes
We could brag about our fu[Csus4]ture
Talk about our leaving d[G]ay
We could have a small reu[Am]nion
For all the people that we k[Fm7]new
We'll all get drunk and cele[G]brate
Here's to me and here's to [C]you
[C]Do we? x2
Savour all the little pie[Fm7]ces
Picture rooms and empty se[C]ats
Imagine everybody lea[Fm7]ving
Without the starving self-es[Am]teems
We could say we didn't mean [Fm7]it
We could dig up all the na[C]mes
We could brag about our fu[Fm7]ture
Talk about our leaving d[G]ay
We could have a small reu[Am]nion
For all the people that we k[Fm7]new
We'll all get drunk and cele[G]brate
Here's to different shades of b[Am]lue
Here's to faces of our me[Fm7]mories
To reprimanded attitu[G]des
To forgetting all the pret[Am]ence
To all the people that we k[Fm7]new
We'll all get drunk and cele[G]brate
Here's to me and here's to y[C]ou
[C] [C] [Fm7] [C] [Fm7] [Am] [Fm7] [C]  
[Fm7]Do w[G]e?[Am] [Fm7] [G] [C]

Important: The song above is NOT stored on the Chordie server. The original song is hosted at www.azchords.com. Chordie works as a search engine and provides on-the-fly formatting. Chordie does not index songs against artists'/composers' will. To remove this song please click here.

Text color:
Chord color:
Chord grids: 
Font size:    
Page size: 

Am C Csus4 Fm7 G
Rate #1 of 1 versions

Login - add to songbook

SHARE PAGE  




You need to log in to post comments