Guitar Tabs, Chords and Lyrics
Server problems seems to be fixed. Chordie has been experiencing problems with songs disappearing. These issues now seems to be fixed, but still verifying the fix. If you find anything strange, please email admin@chordie.com.


All the Wine  The National

[Intro] 
Guitar 1:
 
 e|-15-------| (x6) e|-12-------| (x2) e|-10-------| (x2) e|-15-------|
 B|-----13---| B|-----13---| B|-----13---| B|-----13---|
 G|---0----0-| G|---0----0-| G|---0----0-| G|---0----0-|
 D|----------| D|----------| D|----------| D|----------|
 A|----------| A|----------| A|----------| A|----------|
 E|----------| E|----------| E|----------| E|----------|

Guitar 2:
 
 e|------------------------------------------------------| (x2)
 B|------------------------------------------------------|
 G|-777777777-10101010/9--10----10101010/9-10/7----------|
 D|------------------------------------------------------|
 A|------------------------------------------------------|
 E|------------------------------------------------------|

[Verse 1] 
Guitar 1:
 
 e|-15-------| (until 'so tall') e|-12-------| (x2) e|-10-------| (x2) e|-15-------|
 B|-----13---| B|-----13---| B|-----13---| B|-----13---|
 G|---0----0-| G|---0----0-| G|---0----0-| G|---0----0-|
 D|----------| D|----------| D|----------| D|----------|
 A|----------| A|----------| A|----------| A|----------|
 E|----------| E|----------| E|----------| E|----------|

Guitar 2:
 
 e|------------------------------------------------------|
 B|------------------------------------------------------|
 G|-777777777-10101010/9--10----10101010/9-10/7----------|
 D|------------------------------------------------------|
 A|------------------------------------------------------|
 E|------------------------------------------------------|
 e|----------------------------------------------------------------|
 B|----------------------------------------------------------------|
 G|-777777777-10101010/9--10----555555555-10101010/9-10/7----------|
 D|----------------------------------------------------------------|
 A|----------------------------------------------------------------|
 E|----------------------------------------------------------------|
 e|-----------8-8-8-8-/7-------------------------------------------| (x2)
 B|-----------10101010/8-------------------------------------------|
 G|-777777777-------------10----555555555-10101010/9-10/7----------|
 D|----------------------------------------------------------------|
 A|----------------------------------------------------------------|
 E|----------------------------------------------------------------|

[Cborus] 
Guitar 1:
 
 e|-12-------| (repeat)
 B|-----13---|
 G|---0----0-|
 D|----------|
 A|----------|
 E|----------|

Guitar 2:
 
 e|----------------------------------------| (x2) e|---------|
 B|----------------------------------------| B|---------|
 G|-10--10--10--10--10--10--10--12----12---| G|------12-|
 D|---10--10--10--10--10--10--10----10-----| D|----10---|
 A|-------------------------------12-------| A|--12-----|
 E|----------------------------------------| E|---------|

[Post-Cborus] 
Guitar 1:
 
 e|-15-------| (repeat)
 B|-----13---|
 G|---0----0-|
 D|----------|
 A|----------|
 E|----------|

Guitar 2:
 
 e|----------------------------------------------------------------|
 B|----------------------------------------------------------------|
 G|-1414141414141414-121212121212121212121212121212121212----------|
 D|----------------------------------------------------------------|
 A|----------------------------------------------------------------|
 E|----------------------------------------------------------------|

[Verse 2] 
Guitar 1:
 
 No guitar until 'child bride' e|-12-------| (x2) e|-10-------| (x2) e|-15-------|
 B|-----13---| B|-----13---| B|-----13---|
 G|---0----0-| G|---0----0-| G|---0----0-|
 D|----------| D|----------| D|----------|
 A|----------| A|----------| A|----------|
 E|----------| E|----------| E|----------|

Guitar 2:
 
 e|---------------------------------------------------| (x2)
 B|---------------------------------------------------|
 G|-1414141414141414-1212121212/10--9h10p9--9h10p9----|
 D|---------------------------------------------------|
 A|---------------------------------------------------|
 E|---------------------------------------------------|
 e|----------------------| (x3, palm muted)
 B|----------------------|
 G|----------------------|
 D|-----------55555555---|
 A|-33333333--33333333---|
 E|-11111111-------------|

[Cborus] 
Guitar 1:
 
 e|-12-------| (repeat)
 B|-----13---|
 G|---0----0-|
 D|----------|
 A|----------|
 E|----------|

Guitar 2:
 
 e|----------------------------------------|
 B|----------------------------------------|
 G|-10--10--10--10--10--10--10--12----12---|
 D|---10--10--10--10--10--10--10----10-----|
 A|-------------------------------12-------|
 E|----------------------------------------|
 e|----------------------------------------|
 B|----------------------------------------|
 G|-10--10--10--10---9--9--9--9------------|
 D|---10--10--10--10--10-10-10-10----------|
 A|----------------------------------------|
 E|----------------------------------------|

[Bridge] 
Guitar 1:
I [Am]carry the dollhouse, [C]safe on my shoulders
Th[F]rough the black city, night lights are [C]on in the [Am]corners
And everyone's [C]sleeping upstairs
[F]All safe and sound
[C]All safe and[Am] sound
I [C]won't the let psychos a[F]round
[C]All safe and[Am] sound
I [C]won't let the psychos a[F]round[C]
Guitar 2:
 
 e|-------------------------------------| (repeat)
 B|-------------------------------------|

G|-1414141414141414-1212121212121212---|
 
 D|-------------------------------------|
 A|-------------------------------------|
 E|-------------------------------------|
 e|-------------------------------------| (on last repeat)
 B|-------------------------------------|

G|-1414141414141414-1717171717171717---|
 
 D|-------------------------------------|
 A|-------------------------------------|
 E|-------------------------------------|

[Outro] 
Guitar 1:
 
 e|-15-------| (x16) e|-12-------| (until end)
 B|-----13---| B|-----13---|
 G|---0----0-| G|---0----0-|
 D|----------| D|----------|
 A|----------| A|----------|
 E|----------| E|----------|

Guitar 2:
 
 e|------------------------------------------------------| (x2)
 B|------------------------------------------------------|
 G|-1414141414141414-1212121212101010-99999999-77777777--|
 D|------------------------------------------------------|
 A|------------------------------------------------------|
 E|------------------------------------------------------|

[C]I'm in a state,[F] I'm in a state
[Am]Nothing can touch us[C] my love
I'm [C]in a state,[F] I'm in a state
[Am]Nothing can touch us[C] my love

Important: The song above is NOT stored on the Chordie server. The original song is hosted at www.azchords.com. Chordie works as a search engine and provides on-the-fly formatting. Chordie does not index songs against artists'/composers' will. To remove this song please click here.

Text color:
Chord color:
Chord grids: 
Font size:    
Page size: 

Am C F
Rate #1 of 4 versions

Jango Player

Login - add to songbook

SHARE PAGE  




You need to log in to post comments