Guitar Tabs, Chords and Lyrics
Login is temporarily disabled for some users. Do not panic. Will be back in an hour or two. DO NOT REREGISTER!!


Da Hui   The Offspring

 
 e--------------------------------]
 B--------------------------------]
 G-----------------9-9-9----------] X3
 D-----6-6-4-66-6--9-9-9-9-11-9---]
 A-----6-6-4-66-6--7-7-7-9-11-9---]
 E-----4-4-2-44-4--------7-9- 7---]

 


 then:


 


 

 
 e-----------------]
 B-----------------]
 G-----------------]
 D-6-6-4-6-6-4-6---]
 A-6-6-4-6-6-4-6---]
 E-4-4-2-4-4-2 4---]

 


 


 chorus


 


 

 
 e-----------------]
 B-----------------]
 G--9-9------------]
 D--9-9-4-4-6-6:---]
 A--7-7-4-4-6-6:---]
 E------2-2-4-4:---]

 


 


 solo


 ((Ok, im just gonna put in the note your hittin.. u just have to


 play it super fast and as many times as possible in the time given))


 1st time


 

 
 ----------------}
 e-------------------------------16----------]
 B--16---------17---13--17--16-------13--17--]
 G-------------------------------------------]
 D-------------------------------------------]x2
 A-------------------------------------------]
 E-------------------------------------------]

 


 


 for the first part of the solo (( the hawaian/surf style part))


 play the above twice. the first time you play it play what is already


 written but the second time play this:


 


 

 
 e---------------------------]
 B---------------------------]
 G---------------------------]
 D---------------------------]
 A-------3-3h4-6-4-3---------]
 E-4-4h5-------------5-4h5p4-]

 


 


 in the verse at the end ((the one with drums and vocals))


 you just play this to the last line:


 


 fig.1


 [D-6-]  


 [A-6-]  


 [E-4-]  


 


 outro


 


 

 
 e---------------------------
 B---------------------------
 G---------------------------
 D--6-6-6-6-6-4-7-6----------
 A--6-6-6-6-6-4-7-6----------
 E--4-4-4-4-4-2-5-4----------


Important: The song above is NOT stored on the Chordie server. The original song is hosted at www.azchords.com. Chordie works as a search engine and provides on-the-fly formatting. Chordie does not index songs against artists'/composers' will. To remove this song please click here.

This song is displayed as text-only. Transposing and tuning is only available for chordpro-songs.
Rate #1 of 1 versions

Jango Player

Login - add to songbook

SHARE PAGE  



You need to log in to post comments