Guitar Tabs, Chords and Lyrics
Login is temporarily disabled for some users. Do not panic. Will be back in an hour or two. DO NOT REREGISTER!!


Days Go By  The Offspring

Intro
Lead (Overdrive)
 
 e|--------------------------------------------------|
 B|--------------------------------------------------|
 G|----7-6s4-4s2-2-2h42p1----------------------------|
 D|--------------------------------------------------|
 A|-7------------------------------------------------|
 E|--------------------------------------------------|
 e|--------------------------------------------------|
 B|--------------------------------------------------|
 G|----9-----6s4-4s2-2-7s9-9-9-----------------------|
 D|--------------------------------------------------|
 A|-7----7-------------------------------------------|
 E|--------------------------------------------------| x2

Rhythm (Overdrive)
 
 e|--------------------------------------------------|
 B|--------------------------------------------------|
 G|--7-7---------------------------------------------|
 D|--7-7---------------------------------------------|
 A|--5-5---------------------------------------------|
 E|--------------------------------------------------|

Main Riff
Lead (Distortion)
 
 e|--------------------------------------------------|
 B|--------------------------------------------------|
 G|-------------9---7--------------------------------|
 D|------7h9-------------9---7--9--7p6---------------|
 A|-----------7---7---7----7-----------7-------------|
 E|--------------------------------------------------| x2
 e|--------------------------------------------------|
 B|--------------------------------------------------|
 G|-------------9---7--------------------------------|
 D|------7h9-------------9---7--9--7h9-7p6-----------|
 A|-----------7---7---7----7-------------------------|
 E|--------------------------------------------------|

Rhythm (Overdrive) Listen for the Rhythm
 
 e|--------------------------------------------------|
 B|--------------------------------------------------|
 G|---9-------7---------------9------7---------------|
 D|---9-------7------7--------9------7---------------|
 A|---7--(x8)-5-(x8)-7--------7------5-(x2)----------|
 E|---0--------------5--(x8)--0-(x6)-----------------|

Play the whole sequence twice.
Verse
[E]Weren't you the light?
It won't [D]save you tonight
All our [A]lesson is?
Pictures lost in [E]time
[E]Never enough,
towers [D]crumble to dust.
Looking [A]back on the moments of our[D] lives
Chorus
All your [D]anger, all your [A]hurt
It doesn't [E]matter in the [B]end
Those [D]days go[A] by and we [E]all start again
Chorus (Lead)
Again, Listen for the Rhythm
 
 e|--------------------------------------------------|
 B|-12-10-9---7-77-7--5-55-5--9-99-9-9-9-------------|
 G|--------------------------------------------------|
 D|--9-7--6---4-44-4--2-22-2--6-66-6-6-6-------------|
 A|--------------------------------------------------|
 E|--------------------------------------------------|

Song Order
Intro
Main Riff
Verse
Chorus
Main Riff
Verse
Chorus
Intro
Main Riff
Chorus x2
Outro into fade out (same as chorus chords)
First tab, thanks for checking me out. Sounds about right to me, but I'm not 100% sure,
so lemme know

Important: The song above is NOT stored on the Chordie server. The original song is hosted at www.azchords.com. Chordie works as a search engine and provides on-the-fly formatting. Chordie does not index songs against artists'/composers' will. To remove this song please click here.

Text color:
Chord color:
Chord grids: 
Font size:    
Page size: 

A B D E
Rate #1 of 7 versions

Jango Player

Login - add to songbook

SHARE PAGE  



You need to log in to post comments