Guitar Tabs, Chords and Lyrics
Login is temporarily disabled for some users. Do not panic. Will be back in an hour or two. DO NOT REREGISTER!!


Genocide  The Offspring

Yo, this song is easy. It only took me about 5 minutes to type
up. The whole thing is pretty accurate, but I'm not sure if he
uses the straight power chord or the full, it probably doesn't
matter. This is one of my favourite Offspring songs. Enjoi!
Intro: (dist.)
[G5]  
 
 e|-------------------------------------------------
 B|-------------------------------------------------
 G|-------------------------------------------------
 D|-------------------------------------------------
 A|--5-----------------5--------5--------5-----5----
 E|--3-----3--3--3--3--3--------3--------3-----3----

PM: ^ ^ ^ ^
 
 --------------------------------------------------
 --------------------------------------------------
 --------------------------------------------------
 --------------------------------------------------
 ---5-----------------5--------5--------5----------
 ---3-----3--3--3--3--3--------3--------3-----0----

^ ^ ^ ^
[F5]  
 
 --------------------------------------------------
 --------------------------------------------------
 --------------------------------------------------
 --------------------------------------------------
 ---3-----------------3--------3--------3----------
 ---1-----1--1--1--1--1--------1--------1-----0----

^ ^ ^ ^
[C5]  
 
 --------------------------------------------------|
 --------------------------------------------------|
 --------------------------------------------------|
 ---5-----------------5--------5--------5----------|
 ---3-----3--3--3--3--3--------3--------3-----0----|
 --------------------------------------------------|

^ ^ ^ ^
[drums enter] 
[G5]  
 
 |-------------------------------------------------
 |-------------------------------------------------
 |-------------------------------------------------
 |-------------------------------------------------
 |--5-----------------5--------5--------5-----5----
 |--3-----3--3--3--3--3--------3--------3-----3----

^ ^ ^ ^
 
 --------------------------------------------------
 --------------------------------------------------
 --------------------------------------------------
 --------------------------------------------------
 ---5-----------------5--------5--------5----------
 ---3-----3--3--3--3--3--------3--------3-----0----

^ ^ ^ ^
[F5]  
 
 --------------------------------------------------
 --------------------------------------------------
 --------------------------------------------------
 --------------------------------------------------
 ---3-----------------3--------3--------3----------
 ---1-----1--1--1--1--1--------1--------1-----0----

^ ^ ^ ^
[C5]  
 
 --------------------------------------------------|
 --------------------------------------------------|
 --------------------------------------------------|
 ---5-----------------5--------5--------5----------|
 ---3-----3--3--3--3--3--------3--------3-----0----|
 --------------------------------------------------|

^ ^ ^ ^
[played two more times under Gtr. 2] 
Gtr. 2 (dist.)
 
 |--6--6--6--5--5--6--6-/8--8--8--6--6--6--5--5------
 |-----------------------------------------------6---
 |---------------------------------------------------
 |---------------------------------------------------
 |---------------------------------------------------
 |---------------------------------------------------
 ---5--5--5--6--------5------------------------------|
 ------------------------------5--5--5--6--5-----5---|
 ---------------------------5-----------------5------|
 ----------------------------------------------------|
 ----------------------------------------------------|
 ----------------------------------------------------|

[played twice] 
1st Verse: (drums and bass only)
Our lives run different ways
Through the rain I see you in the sun
Our star shines anyway
If you wish upon it we are one
Bridge: (dist.)
 
 |---------------------------------------------------
 |---------------------------------------------------
 |---------------------------------------------------
 |--5--5--5--5-----5--5--5--5--5--5--5-----5--5--5---
 |---------------------------------------------------
 |---------------------------------------------------
 ----------------------------------------------------
 ----------------------------------------------------
 ----------------------------------------------------
 ---5--5--5--5-----5--5--5--5--5--5--5-----5--5--5---
 ----------------------------------------------------
 ----------------------------------------------------
 ----------------------------------------------------
 ----------------------------------------------------
 ----------------------------------------------------
 ---5--5--5--5-----5--5--5--5--5--5--5-----5--5--5---
 ----------------------------------------------------
 ----------------------------------------------------

[C5]  
 
 ---------------------------------------------------|
 ---------------------------------------------------|
 ---------------------------------------------------|
 ---5--5--5--5-----5--5--5--5-----5-----5-----5-----|
 ---------------------------3-----3-----3-----3-----|
 ---------------------------------------------------|

One, two, three, four
Chorus: (dist.)
[C5] [A#5]  
 
 |----------------------------------------------------
 |----------------------------------------------------
 |----------------------------------------------------
 |----------------------------------------------------
 |---5--5-----5-----5--5--5--8--8-----8-----8--8--8---
 |---3--3-----3-----3--3--3--6--6-----6-----6--6--6---

Dog eat dog Every day
[F5] [C5]  
 
 -----------------------------------------------------|
 -----------------------------------------------------|
 -----------------------------------------------------|
 ---10-10----10----10-10-10---------------------------|
 ---8--8-----8-----8--8--8---10-10----10----10-10-10--|
 ----------------------------8--8-----8-----8--8--8---|

On our fel - low man we prey
Dog eat dog
To get by
Hope you like my genocide
[Gtr. 1 and 2 play Intro again] 
2nd Verse: (dist.)
I find it such a shame
Through the rain I see things as they are
We're served up on a plate
The pedestal is high enough to fall
[G5]  
 
 |-------------------------------------------------
 |-------------------------------------------------
 |-------------------------------------------------
 |-------------------------------------------------
 |--5-----------------5--------5--------5-----5----
 |--3-----3--3--3--3--3--------3--------3-----3----

And If in
^ ^ ^ ^
 
 --------------------------------------------------
 --------------------------------------------------
 --------------------------------------------------
 --------------------------------------------------
 ---5-----------------5--------5--------5----------
 ---3-----3--3--3--3--3--------3--------3-----0----

time We could
^ ^ ^ ^
[F5]  
 
 --------------------------------------------------
 --------------------------------------------------
 --------------------------------------------------
 --------------------------------------------------
 ---3-----------------3--------3--------3----------
 ---1-----1--1--1--1--1--------1--------1-----0----

see the errors
^ ^ ^ ^
[C5]  
 
 --------------------------------------------------|
 --------------------------------------------------|
 --------------------------------------------------|
 ---5-----------------5--------5--------5----------|
 ---3-----3--3--3--3--3--------3--------3-----0----|
 --------------------------------------------------|

of our ways
^ ^ ^ ^
Won't anyone change it anyhow
[D#5] [C5] [D5]  
 
 |---------------------------------------------------|
 |---------------------------------------------------|
 |---8-----------------------5-----------------------|
 |---8-----------------------5----------5--5--7--7---|
 |---6-----------------------3----------3--3--5--5---|
 |---------------------------------------------------|

Our time is up 1 2 3 4
[play Cborus again] 
Interlude: (dist.) Palm muted, played over lyrics
[G5] [A#5]  
 
 |--------------------------------------------------
 |--------------------------------------------------
 |--------------------------------------------------
 |--------------------------------------------------
 |-----5-----5-----5-----5-----8-----8----8-----8---
 |--3-----3-----3-----3-----6-----6-----6----6------

[F5] [C5]  
 
 ---------------------------------------------------|
 ---------------------------------------------------|
 ---------------------------------------------------|
 -----10----10----10---10---------------------------|
 --8-----8-----8-----8-------10----10----10----10---|
 -------------------------8-----8-----8-----8-------|

I bet you'd only run
If you saw what goes inside our own
I bet you'd lead the way
I fit were up to you to decide
But it's not
[play cborus again] 
Outro: (dist.)
[C5] [G5]  
 
 |----------------------------------------------|
 |----------------------------------------------|
 |----------------------------------------------|
 |---5-----5-----5-----5------------------------|
 |---3-----3-----3-----3-----5------------------|
 |---------------------------3------------------|

One, two, three, four
_______________________________________________________________

Important: The song above is NOT stored on the Chordie server. The original song is hosted at www.azchords.com. Chordie works as a search engine and provides on-the-fly formatting. Chordie does not index songs against artists'/composers' will. To remove this song please click here.

Text color:
Chord color:
Chord grids: 
Font size:    
Page size: 

A#5 C5 D#5 D5 F5 G5
Rate #1 of 5 versions

Jango Player

Login - add to songbook

SHARE PAGE  



You need to log in to post comments