Guitar Tabs, Chords and Lyrics
Login is temporarily disabled for some users. Do not panic. Will be back in an hour or two. DO NOT REREGISTER!!


She√Ę??s Got Issues   The Offspring

 
 E|---------------------------|
 B|---------------------------|
 G|---------------------------|
 D|--99--9-9-9-9-9-9-9-9-9-9--|
 A|--99--9-9-9-9-9-9-9-9-9-9--|
 e|--77--7-7-7-7-7-7-7-7-7-7--|

 


 \____palm-mute____/


 


 - VERSE -


 

 
 E|----------------------------------------------------------|
 B|----------------------------------------------------------|
 G|-9-9------9---4-4-----4-6-7-7---7-7-9---------------9-9---|
 D|-9-9------9---4-4-----4-6-7-7---7-7-9-7-7---------x-9-9---|
 A|-7-7----0-7-0-2-2---0-2-4-5-5---5-5-7-7-7---------x-7-7---|
 e|--------------------------------------5-5---0-5-0---------|

 


 


 - CHORUS -


 

 
 E|-------------------------------------------------------------------|
 B|-------------------------------------------------------------------|
 G|-9-9-9-9-8/9-9-9\4--4--4-4-3/4-4-4/7--7--7-7-7---------------------|
 D|-9-9-9-9-8/9-9-9\4--4--4-4-3/4-4-4/7--7--7-7-7-7--7-7--7-7-7-7-7---|
 A|-7-7-7-7-6/7-7-7\2--2--2-2-1/2-2-2/5--5--5-5-5-7--7-7--7-7-7-7-7---|
 e|--------------------------------------------------5--5-5--5-5-5-5-5|

 


 


 - BRIDGE - play 2X


 

 
 E|------------------------------------------------------------------]
 B|------------------------------------------------------------------]
 G|--5-5--55-5-5-5--------------------------------9--9-9--99-9-9-9\--]
 D|--5-5--55-5-5-5--5--5-5--55-5-5-5-5/7--7--7-7--9--9-9--99-9-9-9\--]
 A|--3-3--33-3-3-3--5--5-5--55-5-5-5-5/7--7--7-7--7--7-7--77-7-7-7\--]
 e|-----------------3--3-3--33-3-3-3-3/5--5--5-5---------------------]

 


 


 - BRIDGE2 -


 

 
 E|----------------------------------|
 B|----------------------------------|
 G|--4-4--4-4-4-4-4-4-4-4-4-4-4-4/9--|
 D|--4-4--4-4-4-4-4-4-4-4-4-4-4-4/9--|
 A|--2-2--2-2-2-2-2-2-2-2-2-2-2-2/7--|
 e|----------------------------------|

 


 


 - RIFF -


 

 
 [------------------------------------------------------------------]
 [---------9-------------------------------7-------------------5----]
 [-------9---9-------------8-------------7---7-------------6--------]
 [-----9-----------------9---9---------7-----------------7---7---7--]
 [---7-----------------9-------------5-----------------7------------]
 [-------------------7-------------------------------5--------------]


Important: The song above is NOT stored on the Chordie server. The original song is hosted at www.azchords.com. Chordie works as a search engine and provides on-the-fly formatting. Chordie does not index songs against artists'/composers' will. To remove this song please click here.

This song is displayed as text-only. Transposing and tuning is only available for chordpro-songs.
Rate #1 of 3 versions

Login - add to songbook

SHARE PAGE  




You need to log in to post comments