Guitar Tabs, Chords and Lyrics
Login is temporarily disabled for some users. Do not panic. Will be back in an hour or two. DO NOT REREGISTER!!


The Noose   The Offspring

 
 e------------------------------------------------------------------
 b------------------------------------------------------------------
 g------------------------------------------------------------------
 d------9-----9-----------5------5----------4---5---4-----4---5---4-
 a----7---7-7-----------5---------------5-5---5---5---7-7---7---7---
 e--0-----------------3-----3-3-------------------------------------

 


 


 pre-verse


 


 

 
 e--------------
 b------------8-
 g---------7----
 d--------------
 a--7--10-------
 e--------------

 


 


 verse *= 8x


 


 

 
 e-----------
 b-------*--*
 g-*--*--7--9
 d-2--5--7--9
 a-2--5--5--7
 e-0--3------

 


 


 chorus *= 8x


 


 

 
 e-----------
 b-*-----*--*
 g-9--*--7--9
 d-9--5--7--9
 a-7--5--5--7
 e----3------

 


 


 durnig bass reverse strum


 


 e---


 [b---]g---


 [d-2-]  


 [a-2-]e-0-


 


 solo


 


 

 
 e-----------------------------------------------------
 b-----10--10--8--8--10-15^-15^-15^-15^-17^-17^-17^-17^
 g--9--------------------------------------------------
 d-----------------------------------------------------
 a-----------------------------------------------------
 e-----------------------------------------------------

 


 


 prechorus (no more!no!....) *=3x with p.m.


 


 

 
 e--------------------
 b----*---------*----*
 g--7/9----*--5/7--7/9
 d--7/9--4/5--5/7--7/9
 a--5/7--4/5--3/5--5/7
 e-------2/3----------


Important: The song above is NOT stored on the Chordie server. The original song is hosted at www.azchords.com. Chordie works as a search engine and provides on-the-fly formatting. Chordie does not index songs against artists'/composers' will. To remove this song please click here.

This song is displayed as text-only. Transposing and tuning is only available for chordpro-songs.
Rate #1 of 4 versions

Jango Player

Login - add to songbook

SHARE PAGE  



You need to log in to post comments