Guitar Tabs, Chords and Lyrics
Login is temporarily disabled for some users. Do not panic. Will be back in an hour or two. DO NOT REREGISTER!!


Way Down the Line   The Offspring

 
 g[-7----------7-------------7---------7/--]
 d[-7-----5----7-----5---7---7-----7---7/--]
 a[-5-----5----5-----5---7---5-----7---5/--]
 e[-------3----------3---5---------5------0]

 


 


 Preverse/1st Verse- play that last G very quickly, almost like a ghost chord


 


 

 
 g[---7-7-5-7------10-12-12-10-12-12\---------------------]
 d[---7-7-5-7------10-12-12-10-12-12\---------------------] x9
 a[---5-5-3-5------8- 10-10-8- 10-10\---------------------]
 e[-------------------------------------------------------]

 


 


 Prechorus- kinda like the intro only palm muted and each chord


 hit eight times. Also, at the end of the third time playing, end


 with the second part over here


 


 

 
 g[--7-7-7-7-7-7-7-7-----------------] [----------------------]
 d[--7-7-7-7-7-7-7-7-5-5-5-5-5-5-5-5-] [--7-7-7-7-7-7-7-7-7-7-]
 a[--5-5-5-5-5-5-5-5-5-5-5-5-5-5-5-5-] x3 [--7-7-7-7-7-7-7-7-7-7-]
 e[------------------3-3-3-3-3-3-3-3-] [--5-5-5-5-5-5-5-5-5-5-]

 


 p.m.[...............................] [.................]


 


 Chorus- exactly like the intro only you hit each chord approx.


 (and since I`m a lazy piece of cr*p I decided not to tab it)


 


 2nd Verse- exactly like the 1st Verse


 


 2nd Prechorus- the same as the 1st


 


 Chorus played twice


 


 3rd Verse â?? goes like this


 


 

 
 g[--10-10-10-10-10-10-10-12-12-12-12-12-12-12--5-7-7-5-7---5-7-7-5-7-]
 d[--10-10-10-10-10-10-10-12-12-12-12-12-12-12--5-7-7-5-7---5-7-7-5-7-] x2
 a[--8- 8- 8- 8- 8- 8- 8--10-10-10-10-10-10-10--3-5-5-3-5---3-5-5-3-5-]
 e[-------------------------------------------------------------------]

 


 


 3rd Prechorus â?? the same as the 3rd verse except after the


 8th and 10th (F and G) fret power chords hold the D chord rather than


 sliding to the C, you play this after


 the 1st time and this after the second time, so it should


 look like this:


 


 

 
 g[---10-10-10-10-10/-12-12-12-12/-14-14-14--]
 d[---10-10-10-10-10/-12-12-12-12/-14-14-14--]
 a[---8- 8- 8- 8- 8-/-10-10-10-10/-12-12-12--]

 


 


 Chorus


 


 Solo- After two years (I tabbed this two years ago. . .)I


 finally got the solo! CHA-CHING!


 


 

 
 e[-----2---4-5------9---11-12-----7--9-10------9---11-12--]
 b[----3-3---------10-10----------8-8---------10-10--------] x2


Important: The song above is NOT stored on the Chordie server. The original song is hosted at www.azchords.com. Chordie works as a search engine and provides on-the-fly formatting. Chordie does not index songs against artists'/composers' will. To remove this song please click here.

This song is displayed as text-only. Transposing and tuning is only available for chordpro-songs.
Rate #1 of 2 versions

Login - add to songbook

SHARE PAGE  




You need to log in to post comments