Guitar Tabs, Chords and Lyrics
Major upgrade!! After one year development the new version of Chordie is now online! Please give feedback.


Every Little Thing She Does Is Magic  The Police

 
 -----0------------0----------0-------------2-0--------|
 --------3------------3------------3-------------3-2-0-|
 --0/2--2------0/2---2-----0/2---2------0/2------------| Verse
 ------------------------------------------------------|
 ------------0------------2-----------4----------------|
 -3----------------------------------------------------|
 -2-------2-------2-------2--------------|
 -3--3-5--3--3-5--3--3-5--3--------------|
 -2--4-6--2--4-6--2--4-6--2--------------| Pre Chorus
 -0--5-7--0--5-7--0--5-7--0--------------|
 ----------------------------------------|
 ----------------------------------------|

Chorus: A, D, A, D, A, D, A, Bb, F.. Then:
 
 -----0------------0----------0-------------2-0--------|
 --------3------------3------------3-------------3-2-0-|
 --0/2--2------0/2---2-----0/2---2------0/2------------| Verse
 ------------------------------------------------------|
 ------------0------------2-----------4----------------|
 -3----------------------------------------------------|

"[Bb]I resolved to c[C]all her up[G] a thousand times a [A]day,[Bb] and ask her if she'll[C] mary
me,[G] in some old-fashioned [A]way. But my [Bb]silent fears have [C]gripped, long[Bb] before
I reached the [C]phone, long be[Bb]fore my tongue has [C]tripped me, must I [Bb]always [A]be
 
 Alone --> -2-------2--|
 -3--4-5--3--|
 -2--6-6--2--|
 -0--5-7--0--|
 ------------|
 ------------|

The other part of song follows " Bb F G A Bb C *prechorus*".
La parte restante della canzone segue "Bb F G A C *preritornello".

Important: The song above is NOT stored on the Chordie server. The original song is hosted at www.azchords.com. Chordie works as a search engine and provides on-the-fly formatting. Chordie does not index songs against artists'/composers' will. To remove this song please click here.

Text color:
Chord color:
Chord grids: 
Font size:    
Page size: 

A Bb C G
Rate #2 of 4 versions

Login - add to songbook

SHARE PAGE  




You need to log in to post comments