Guitar Tabs, Chords and Lyrics
Server problems seems to be fixed. Chordie has been experiencing problems with songs disappearing. These issues now seems to be fixed, but still verifying the fix. If you find anything strange, please email admin@chordie.com.


Hole in My Life  The Police

Intro
Q=216
12/8[Am7] [Am6]
Gtr I (Clean El. Gtr. w/ flanger)
W Q E E q. Q. q. E E E q. Q. q. E E E 8x
 
 |-----------------||-----------------------|-------------------------||
 |-----------------||o--------------------5-|-5----5----5----5---5---o||
 |---------------5-||--5----5----5----5---5-|-5----5----5----5---5----||
 |---------------5-||--5----5----5----5---4-|-4----4----4----4---5----||
 |-----------------||o----------------------|------------------------o||
 |-----------------||--5----5----5----5-----|-5----5----5----5--------||

Chorus
[Am7]q. Q. q. E E E [Am6]q. Q. q. E E E
 
 ||-----------------------|----------------------|
 ||o--------------------5-|-5----5----5----5---5-|
 ||--5----5----5----5---5-|-5----5----5----5---5-|
 ||--5----5----5----5---4-|-4----4----4----4---5-|
 ||o----------------------|----------------------|
 ||--5----5----5----5-----|-5----5----5----5-----|

[Am7]q. Q. q. E E E [Am6]q. Q. q. E E E
 
 |----------------------|------------------------|
 |--------------------5-|-5----5----5----5---5---|
 |-5----5----5----5---5-|-5----5----5----5---5---|
 |-5----5----5----5---4-|-4----4----4----4---5---|
 |----------------------|------------------------|
 |-5----5----5----5-----|-5----5----5----5-------|

[Am7]q. Q. q. E E E [Am6]q. Q. q. E E E
 
 |----------------------|----------------------|
 |--------------------5-|-5----5----5----5---5-|
 |-5----5----5----5---5-|-5----5----5----5---5-|
 |-5----5----5----5---4-|-4----4----4----4---5-|
 |----------------------|----------------------|
 |-5----5----5----5-----|-5----5----5----5-----|

[Am7]q. Q. q. E E E [Am6]q. Q. q. E E E
 
 |----------------------|-------------------------||
 |--------------------5-|-5----5----5----5---5----||
 |-5----5----5----5---5-|-5----5----5----5---5----||
 |-5----5----5----5---4-|-4----4----4----4---5----||
 |----------------------|-------------------------||
 |-5----5----5----5-----|-5----5----5----5--------||

1st & 2nd Verses
[Dm7] q. q. q. E E E [Dm6] q. q. q. E E E
 
 |---------------------------|----------------------------|
 |-10----10----10----10------|-10----10----10----10---(0)-|
 |-10----10----10----10---10-|-10----10----10----10---(0)-|
 |-10----10----10----10----9-|--9-----9-----9-----9---(0)-|
 |---------------------------|----------------------------|
 |-10----10----10----10------|-10----10----10----10-------|

[Dm7] q. q. q. E E E [Dm6] q. q. q. E E E
 
 |---------------------------|-------------------------------|
 |-10----10----10----10------|-10----10----10----10---(0)----|
 |-10----10----10----10---10-|-10----10----10----10---(0)----|
 |-10----10----10----10----9-|--9-----9-----9-----9---(0)----|
 |---------------------------|-------------------------------|
 |-10----10----10----10------|-10----10----10----10----------|

[Dm7] q. q. q. E E E [Dm6] q. q. q. E E E
 
 |---------------------------|----------------------------|
 |-10----10----10----10------|-10----10----10----10---(0)-|
 |-10----10----10----10---10-|-10----10----10----10---(0)-|
 |-10----10----10----10----9-|--9-----9-----9-----9---(0)-|
 |---------------------------|----------------------------|
 |-10----10----10----10------|-10----10----10----10-------|

[E]q. q. q. q. [E/D] q. q. q. q.
 
 |---------------------|--------------------------|
 |-9----9----9----9----|--9-----9-----9-----9-----|
 |-9----9----9----9----|--9-----9-----9-----9-----|
 |-9----9----9----9----|--9-----9-----9-----9-----|
 |-7----7----7----7----|--------------------------|
 |-0----0----0----0----|-10----10----10----10-----|

1. 2.
[C] q. q. q. q. [B]q. q. [Bb]q. [E]E E E [B]q. q. [Bb]q. [E]E E E
 
 |-------------------------|-----------------------||-----------------------||
 |-------------------------|----------------------o||-----------------------||
 |--9-----9-----9-----9----|-8----8----7----1---1--||-8----8----7----1---1--||
 |-10----10----10----10----|-9----9----8----2---2--||-9----9----8----2---2--||
 |-10----10----10----10----|-9----9----8----2---2-o||-9----9----8----2---2--||
 |--8-----8-----8-----8----|-7----7----6----0------||-7----7----6----0------||

Bridge
$
[Bm7]Q. Q. Q. Q. [Bm6]q. q. q. q.
 
 |---------------------|---------------------|
 |-7----7----7----7----|-7----7----7----7----|
 |-7----7----7----7----|-7----7----7----7----|
 |-7----7----7----7----|-6----6----6----6----|
 |---------------------|---------------------|
 |-7----7----7----7----|-7----7----7----7----|

[Bm7]Q. Q. Q. Q. [Bm6]q. q. q. q.
 
 |---------------------|----------------------|
 |-7----7----7----7----|-7----7----7----7-----|
 |-7----7----7----7----|-7----7----7----7-----|
 |-7----7----7----7----|-6----6----6----6-----|
 |---------------------|----------------------|
 |-7----7----7----7----|-7----7----7----7-----|

[Bm7]Q. Q. Q. Q. [Bm6]q. q. q. q.
 
 |---------------------|---------------------|
 |-7----7----7----7----|-7----7----7----7----|
 |-7----7----7----7----|-7----7----7----7----|
 |-7----7----7----7----|-6----6----6----6----|
 |---------------------|---------------------|
 |-7----7----7----7----|-7----7----7----7----|

[Bm7]Q. Q. Q. Q. [Bm6]q. q. q. q.
 
 |---------------------|----------------------||
 |-7----7----7----7----|-7----7----7----7-----||
 |-7----7----7----7----|-7----7----7----7-----||
 |-7----7----7----7----|-6----6----6----6-----||
 |---------------------|----------------------||
 |-7----7----7----7----|-7----7----7----7-----||

3rd Verse
[Dm7] q. q. q. E E E [Dm6] q. q. q. E E E
 
 |---------------------------|----------------------------|
 |-10----10----10----10------|-10----10----10----10---(0)-|
 |-10----10----10----10---10-|-10----10----10----10---(0)-|
 |-10----10----10----10----9-|--9-----9-----9-----9---(0)-|
 |---------------------------|----------------------------|
 |-10----10----10----10------|-10----10----10----10-------|

[Dm7] q. q. q. E E E [Dm6] q. q. q. E E E
 
 |---------------------------|-------------------------------|
 |-10----10----10----10------|-10----10----10----10---(0)----|
 |-10----10----10----10---10-|-10----10----10----10---(0)----|
 |-10----10----10----10----9-|--9-----9-----9-----9---(0)----|
 |---------------------------|-------------------------------|
 |-10----10----10----10------|-10----10----10----10----------|

[E]q. q. q. q. [E/D] q. q. q. q.
 
 |---------------------|-------------------------|
 |-9----9----9----9----|--9-----9-----9-----9----|
 |-9----9----9----9----|--9-----9-----9-----9----|
 |-9----9----9----9----|--9-----9-----9-----9----|
 |-7----7----7----7----|-------------------------|
 |-0----0----0----0----|-10----10----10----10----|

To Coda
[C] q. q. q. q. [B]q. q. [Bb]q. [E]E E E
 
 |-------------------------|-------------------------||
 |-------------------------|-------------------------||
 |--9-----9-----9-----9----|-8----8----7----1---1----||
 |-10----10----10----10----|-9----9----8----2---2----||
 |-10----10----10----10----|-9----9----8----2---2----||
 |--8-----8-----8-----8----|-7----7----6----0--------||

Chorus
[Am7]q. Q. q. E E E [Am6]q. Q. q. E E E
 
 |----------------------|----------------------|
 |--------------------5-|-5----5----5----5---5-|
 |-5----5----5----5---5-|-5----5----5----5---5-|
 |-5----5----5----5---4-|-4----4----4----4---5-|
 |----------------------|----------------------|
 |-5----5----5----5-----|-5----5----5----5-----|

[Am7]q. Q. q. E E E [Am6]q. Q. q. E E E
 
 |----------------------|-------------------------|
 |--------------------5-|-5----5----5----5---5----|
 |-5----5----5----5---5-|-5----5----5----5---5----|
 |-5----5----5----5---4-|-4----4----4----4---5----|
 |----------------------|-------------------------|
 |-5----5----5----5-----|-5----5----5----5--------|

[Am7]q. Q. q. E E E [Am6]q. Q. q. E E E
 
 |----------------------|----------------------|
 |--------------------5-|-5----5----5----5---5-|
 |-5----5----5----5---5-|-5----5----5----5---5-|
 |-5----5----5----5---4-|-4----4----4----4---5-|
 |----------------------|----------------------|
 |-5----5----5----5-----|-5----5----5----5-----|

[Am7]q. Q. q. E E E [Am6]q. Q. q. E E E
 
 |----------------------|-------------------------||
 |--------------------5-|-5----5----5----5---5----||
 |-5----5----5----5---5-|-5----5----5----5---5----||
 |-5----5----5----5---4-|-4----4----4----4---5----||
 |----------------------|-------------------------||
 |-5----5----5----5-----|-5----5----5----5--------||

Interlude
[Am7]q. Q. q. E E E [Am6]q. Q. q. E E E
 
 ||-----------------------|----------------------|
 ||o--------------------5-|-5----5----5----5---5-|
 ||--5----5----5----5---5-|-5----5----5----5---5-|
 ||--5----5----5----5---4-|-4----4----4----4---5-|
 ||o----------------------|----------------------|
 ||--5----5----5----5-----|-5----5----5----5-----|

[Am7]q. Q. q. E E E [Am6]q. Q. q. E E E
 
 |----------------------|-------------------------||
 |--------------------5-|-5----5----5----5---5---o||
 |-5----5----5----5---5-|-5----5----5----5---5----||
 |-5----5----5----5---4-|-4----4----4----4---5----||
 |----------------------|------------------------o||
 |-5----5----5----5-----|-5----5----5----5--------||

Guitar Solo
[Dm7] q. q. q. E E E [Dm6] q. q. q. E E E
 
 |--------------------------------------|---------------------------------------|
 |-10-------10-------10-------10--------|-10-------10-------10-------10-----(0)-|
 |-10-------10-------10-------10-----10-|-10-------10-------10-------10-----(0)-|
 |-10-------10-------10-------10------9-|--9--------9--------9--------9-----(0)-|
 |--------------------------------------|---------------------------------------|
 |-10-------10-------10-------10--------|-10-------10-------10-------10---------|

|
| Gtr II (Clean El. Gtr.)
 
 | |-----3------| |-----3-----| |-----3------| |-----3-----|

| q. q. q. q. q. q. q. q. q. q. q. q.
 
 |--------------------------------------|---------------------------------------|
 |--------------------------------------|---------------------------------------|
 |-14---14------14---14---14-----14-----|-14---14------14---14---14-----14------|
 |--------------------------------------|---------------------------------------|
 |--------------------------------------|---------------------------------------|
 |--------------------------------------|---------------------------------------|

[Dm7] q. q. q. E E E [Dm6] q. q. q. E E E
 
 |--------------------------------------|------------------------------------------|
 |-10-------10-------10-------10--------|-10-------10-------10-------10-----(0)----|
 |-10-------10-------10-------10-----10-|-10-------10-------10-------10-----(0)----|
 |-10-------10-------10-------10------9-|--9--------9--------9--------9-----(0)----|
 |--------------------------------------|------------------------------------------|
 |-10-------10-------10-------10--------|-10-------10-------10-------10------------|

|
 
 | |-----3------| |-----3-----| |-----3------| |-----3-----|

| q. q. q. q. q. q. q. q. q. q. q. q.
 
 |--------------------------------------|------------------------------------------|
 |-13---13------13---13---13-----13-----|-12---12------12---12---12-----12---------|
 |-14---14------14---14---14-----14-----|-14---14------14---14---14-----14---------|
 |--------------------------------------|------------------------------------------|
 |--------------------------------------|------------------------------------------|
 |--------------------------------------|------------------------------------------|

[Dm7] q. q. q. E E E
 
 |--------------------------------------|
 |-10-------10-------10-------10--------|
 |-10-------10-------10-------10-----10-|
 |-10-------10-------10-------10------9-|
 |--------------------------------------|
 |-10-------10-------10-------10--------|

|
 
 | |-----3------| |-----3-----|

| q. q. q. q. q. q.
 
 |-10---10------10---10---10-----10-----|
 |-13---13------13---13---13-----13-----|
 |-14---14------14---14---14-----14-----|
 |--------------------------------------|
 |--------------------------------------|
 |--------------------------------------|

[Dm6] q. q. q. E E E [E] q. q. q. q.
 
 |---------------------------------------|-------------------------------|
 |-10-------10-------10-------10-----(0)-|--9-------9---------9----9-----|
 |-10-------10-------10-------10-----(0)-|--9-------9---------9----9-----|
 |--9--------9--------9--------9-----(0)-|--9-------9---------9----9-----|
 |---------------------------------------|--7-------7---------7----7-----|
 |-10-------10-------10-------10---------|--0-------0---------0----0-----|

|
| ~~~~
 
 | |-----3------| |-----3-----|

| q. q. q. q. q. q. q. q. +h.
 
 |-10---10------10---10---10-----10------|-12------12-------(12)---------|
 |-12---12------12---12---12-----12------|-15b17---15b17====(15)---------|
 |-14---14------14---14---14-----14------|-------------------------------|
 |---------------------------------------|-------------------------------|
 |---------------------------------------|-------------------------------|
 |---------------------------------------|-------------------------------|

[E/D] q. q. q. q. [C] q. q. q. q.
 
 |---------------------------|--------------------------------------|
 |---9------9-----9-----9----|--------------------------------------|
 |---9------9-----9-----9----|--9-------9---------9------9----------|
 |---9------9-----9-----9----|-10------10--------10-----10----------|
 |---------------------------|-10------10--------10-----10----------|
 |--10-----10----10----10----|--8-------8---------8------8----------|

|
| ~~~~~
| +w. q. q. +q. +Q E
 
 |-(12)----------------------|-12------12-------(12)----------------|
 |-(15)r---------------------|-15b17---15b17====(15)r==(15)--15b17==|
 |---------------------------|--------------------------------------|
 |---------------------------|--------------------------------------|
 |---------------------------|--------------------------------------|
 |---------------------------|--------------------------------------|

D.S. al Coda
[B] q. q. [Bb] q. [E]E E E
 
 |------------------------------------||
 |------------------------------------||
 |---8------8------------7-----1---1--||
 |---9------9------------8-----2---2--||
 |---9------9------------8-----2---2--||
 |---7------7------------6-----0------||

|
| ~~~~~
| Q. +Q E H.
 
 |--12------------------12------------||
 |-(15)r==(15)--15b17==(15)r----------||
 |------------------------------------||
 |------------------------------------||
 |------------------------------------||
 |------------------------------------||

Out-Chorus
&
[Am7] q. Q. q. E E E
 
 |----------------------------------------|
 |--------------------------------------5-|
 |--5---------5---------5---------5-----5-|
 |--5---------5---------5---------5-----4-|
 |----------------------------------------|
 |--5---------5---------5---------5-------|

|
| Gtr III (Piano arr. for Gtr.)
| E E E E E E E E E E E E
 
 |-22-----22-----22----22-----22----22----|
 |----------------------------------------|
 |-----19----19-----19-----19----19----19-|
 |----------------------------------------|
 |----------------------------------------|
 |----------------------------------------|

[Am6] q. Q. q. E E E [Am7] q. Q. q. E E E
 
 |----------------------------------------|-----------------------------------------|
 |--5---------5---------5---------5-----5-|--------------------------------------5--|
 |--5---------5---------5---------5-----5-|--5---------5---------5---------5-----5--|
 |--4---------4---------4---------4-----5-|--5---------5---------5---------5-----4--|
 |----------------------------------------|-----------------------------------------|
 |--5---------5---------5---------5-------|--5---------5---------5---------5--------|

|
| E E E E E E E E E E E E E E E E E E E E E E E E
 
 |-22-----22-----22----22-----22----22----|-22-----22-----22----22-----22----22-----|
 |----------------------------------------|-----------------------------------------|
 |-----19----19-----19-----19----19----19-|-----19----19-----19-----19----19----19--|
 |----------------------------------------|-----------------------------------------|
 |----------------------------------------|-----------------------------------------|
 |----------------------------------------|-----------------------------------------|

[Am6] q. Q. q. E E E
 
 |----------------------------------------|
 |--5---------5---------5---------5-----5-|
 |--5---------5---------5---------5-----5-|
 |--4---------4---------4---------4-----5-|
 |----------------------------------------|
 |--5---------5---------5---------5-------|

|
| E E E E E E E E E E E E
 
 |-22-----22-----22----22-----22----22----|
 |----------------------------------------|
 |-----19----19-----19-----19----19----19-|
 |----------------------------------------|
 |----------------------------------------|
 |----------------------------------------|

[Am7] q. Q. q. E E E [Am6] q. Q. q. E E E
 
 ||-----------------------------------------|-----------------------------------------|
 ||o--------------------------------------5-|--5---------5---------5---------5-----5--|
 ||---5---------5---------5---------5-----5-|--5---------5---------5---------5-----5--|
 ||---5---------5---------5---------5-----4-|--4---------4---------4---------4-----5--|
 ||o----------------------------------------|-----------------------------------------|
 ||---5---------5---------5---------5-------|--5---------5---------5---------5--------|

|
| E E E E E E E E E E E E E E E E E E E E E E E E
 
 ||--22-----22-----22----22-----22----22----|-22-----22-----22----22-----22----22-----|
 ||o----------------------------------------|-----------------------------------------|
 ||------19----19-----19-----19----19----19-|-----19----19-----19-----19----19----19--|
 ||-----------------------------------------|-----------------------------------------|
 ||o----------------------------------------|-----------------------------------------|
 ||-----------------------------------------|-----------------------------------------|

[Am7] q. Q. q. E E E
 
 |----------------------------------------|
 |--------------------------------------5-|
 |--5---------5---------5---------5-----5-|
 |--5---------5---------5---------5-----4-|
 |----------------------------------------|
 |--5---------5---------5---------5-------|

|
| E E E E E E E E E E E E
 
 |-22-----22-----22----22-----22----22----|
 |----------------------------------------|
 |-----19----19-----19-----19----19----19-|
 |----------------------------------------|
 |----------------------------------------|
 |----------------------------------------|

[Am6] q. Q. q. E E E 12x [Am7] q. Q. q. E E E
 
 |-----------------------------------------||-----------------------------------------|
 |--5---------5---------5---------5-----5-o||--------------------------------------5--|
 |--5---------5---------5---------5-----5--||--5---------5---------5---------5-----5--|
 |--4---------4---------4---------4-----5--||--5---------5---------5---------5-----4--|
 |----------------------------------------o||-----------------------------------------|
 |--5---------5---------5---------5--------||--5---------5---------5---------5--------|

|
| E E E E E E E E E E E E 12x E E E E E E E E E E E E
 
 |-22-----22-----22----22-----22----22-----||-22-----22-----22----22-----22----22-----|
 |----------------------------------------o||-----------------------------------------|
 |-----19----19-----19-----19----19----19--||-----19----19-----19-----19----19----19--|
 |-----------------------------------------||-----------------------------------------|
 |----------------------------------------o||-----------------------------------------|
 |-----------------------------------------||-----------------------------------------|

[Am6] q. Q. q. E E E
 
 |----------------------------------------|
 |--5---------5---------5---------5-----5-|
 |--5---------5---------5---------5-----5-|
 |--4---------4---------4---------4-----5-|
 |----------------------------------------|
 |--5---------5---------5---------5-------|

|
| E E E E E E E E E E E E
 
 |-22-----22-----22----22-----22----22----|
 |----------------------------------------|
 |-----19----19-----19-----19----19----19-|
 |----------------------------------------|
 |----------------------------------------|
 |----------------------------------------|

H.=H
[Am7] q. Q. q. E E E [Am6] q. Q. q. E E E
 
 |----------------------------------------|-----------------------------------------|
 |--------------------------------------5-|--5---------5---------5---------5-----5--|
 |--5---------5---------5---------5-----5-|--5---------5---------5---------5-----5--|
 |--5---------5---------5---------5-----4-|--4---------4---------4---------4-----5--|
 |----------------------------------------|-----------------------------------------|
 |--5---------5---------5---------5-------|--5---------5---------5---------5--------|

|
| E E E E E E E E E E E E E E E E E E E E E E E E
 
 |-22-----22-----22----22-----22----22----|-22-----22-----22----22-----22----22-----|
 |----------------------------------------|-----------------------------------------|
 |-----19----19-----19-----19----19----19-|-----19----19-----19-----19----19----19--|
 |----------------------------------------|-----------------------------------------|
 |----------------------------------------|-----------------------------------------|
 |----------------------------------------|-----------------------------------------|

q. Q. q. E E E
 
 |----------------------------------------|
 |--------------------------------------5-|
 |--5---------5---------5---------5-----5-|
 |--5---------5---------5---------5-----4-|
 |----------------------------------------|
 |--5---------5---------5---------5-------|

|
| E E E E E E E E E E E E
 
 |-22-----22-----22----22-----22----22----|
 |----------------------------------------|
 |-----19----19-----19-----19----19----19-|
 |----------------------------------------|
 |----------------------------------------|
 |----------------------------------------|

TP
q. Q. q. E E E w.
 
 |----------------------------------------|--------*|
 |--5---------5---------5---------5-----5-|-(5)----*|
 |--5---------5---------5---------5-----5-|--5-----*|
 |--4---------4---------4---------4-----5-|--5-----*|
 |----------------------------------------|--------*|
 |--5---------5---------5---------5-------|--5-----*|

|
| E E E E E E E E E E E E W
 
 |-22-----22-----22----22-----22----22----|--------*|
 |----------------------------------------|--------*|
 |-----19----19-----19-----19----19----19-|--------*|
 |----------------------------------------|--------*|
 |----------------------------------------|--------*|
 |----------------------------------------|--------*| 


Important: The song above is NOT stored on the Chordie server. The original song is hosted at www.azchords.com. Chordie works as a search engine and provides on-the-fly formatting. Chordie does not index songs against artists'/composers' will. To remove this song please click here.

Text color:
Chord color:
Chord grids: 
Font size:    
Page size: 

Am6 Am7 B Bb Bm6 Bm7 C Dm6 Dm7 E E/D
Rate #1 of 3 versions

Login - add to songbook

SHARE PAGE  




You need to log in to post comments