Guitar Tabs, Chords and Lyrics
Server problems seems to be fixed. Chordie has been experiencing problems with songs disappearing. These issues now seems to be fixed, but still verifying the fix. If you find anything strange, please email admin@chordie.com.


Seventeen Ainâ??t So Sweet   The Red Jumpsuit Apparatus

 
 d[-------------------------------------------------------------------------]
 A[-------------------------------------------------------------------------]
 F[-7~777777777-7~777777777-------------------------------------------------]
 C[-7~777777777-7~777777777-------------------------------------------------]
 G[-5~555555555-5~555555555-------------------------------------------------]
 C[-------------------------------------------------------------------------]

 


 


 Verse:


 

 
 d[--------------------------------|--*-------------------------------------]
 A[--------------------------------|--*-------------------------------------]
 F[--------------------------------|--*-------------------------------------]
 C[-8-89--89--89--89--89--89-89-10-|--2~22222222--4~44444444--6~66666666----]
 G[-8-89--89--89--89--89--89-89-10-|--2~22222222--4~44444444--6~66666666----]
 C[-8-89--89--89--89--89--89-89-10-|--2~22222222--4~44444444--6~66666666----]

 


 "*Even tho it seems*"


 


 

 
 d[----------------*--------------------------------------------------------]
 A[----------------*--------------------------------------------------------]
 F[-55/77/9999-9~--*--7~----------------------------------------------------]
 C[-55/77/9999-9~--*--7~----------------------------------------------------]
 G[-33/55/7777-7~--*--5~----------------------------------------------------]
 C[----------------*--------------------------------------------------------]

 


 .. .. .... "*Don't worry u'll show them*"


 


 Chorus:


 

 
 d[-------------------------------------------------------------------------]
 A[-------------------------------------------------------------------------]
 F[-----------------------------------------------------77777777-555555555--]
 C[-00000000-33333333-00000000-3333333-0000000000-3333--77777777-555555555--]
 G[-00000000-33333333-00000000-3333333-0000000000-3333--55555555-333333333--]
 C[-00000000-33333333-00000000-3333333-0000000000-3333----------------------]

 


 "*Hope u let it*" "Until ur heard"


 


 Verse 2 is the same as verse only u really have to listen well cause the rhythm guitar


 more dominant during that time, after verse 2 do a quick pick slide then go to the chorus again.


 


 then play...


 

 
 d[--------------*----------------------------------------------------------]
 A[--------------|----------------------------------------------------------]
 F[-5555555555555|555555555555555555555555555555555555555-------------------]
 C[-5555555555555|555555555555555555555555555555555555555-------------------]
 G[-3333333333333|333333333333333333333333333333333333333-------------------]
 C[--------------*----------------------------------------------------------]

 


 .. .. .. ... .. .. .. ... .. .. .. ... .. .. .. ...


 *u can play that or play the separated part 4 times so its less complicated*


 


 

 
 d[-------------------------------------------------------------------------]
 A[-------------------------------------------------------------------------]
 F[-55555555-33333333-55555555-33333333-77777777-55555555-33333333----------]
 C[-xxxxxxxx-xxxxxxxx-xxxxxxxx-xxxxxxxx-xxxxxxxx-xxxxxxxx-xxxxxxxx--2--0~---]
 G[-33333333-11111111-33333333-11111111-55555555-33333333-11111111--2--0~---]
 C[-----------------------------------------------------------------2--0~---]

 


 


 <Then play chorus again>


 


 The Last Chorus:


 

 
 d[-------------------------------------------------------------------------]
 A[-------------------------------------------------------------------------]
 F[-------------------------------------------------------------------------]
 C[-00000000-33333333-00000000-3333333-000000000000-------------------------]
 G[-00000000-33333333-00000000-3333333-000000000000-------------------------]
 C[-00000000-33333333-00000000-3333333-000000000000-------------------------]

 


 "*Hope u let it*" "Until ur heard"


 


 

 
 d[-------------------------------------------------------------------------]
 A[-------------------------------------------------------------------------]
 F[-7~777777777-7~777777777-7~77777777-7~77777777-7~------------------------]
 C[-7~777777777-7~777777777-7~77777777-7~77777777-7~------------------------]
 G[-5~555555555-5~555555555-5~55555555-5~55555555-5~------------------------]
 C[-------------------------------------------------------------------------]


Important: The song above is NOT stored on the Chordie server. The original song is hosted at www.azchords.com. Chordie works as a search engine and provides on-the-fly formatting. Chordie does not index songs against artists'/composers' will. To remove this song please click here.

This song is displayed as text-only. Transposing and tuning is only available for chordpro-songs.
Rate #1 of 5 versions

Login - add to songbook

SHARE PAGE  



You need to log in to post comments