Guitar Tabs, Chords and Lyrics
Update 25:10. 13:00. Site is back up running again. Songbooks are recovered. Woring on getting search back up..


Heavy Lies the Crown  The Scene Aesthetic

The Scene Aesthetic - Heavy Lies The Crown
Capo 2nd Asus2 = x02200 Cmaj7 = x32000 G6 = 320000 Em#7 = 021000
C#m7b5 = x42000
Intro Em |Cadd9 |G | ||X4
 
 e|----------|----0-0----0----|----3-3----3----|----3-3----3----|---3----|
 B|----------|----0-0----0----|----3-3----3----|----3-3----3----|---3----|
 G|----------|----0-0--0-0----|----0-0--0-0----|----0-0--0-0--0-|---0----|
 D|--2h4-2p0-|-2-------2-2--0-|----2-2--2-2----|----0-0--0-0--0-|---0----|
 A|----------|-----------2----|-3---------3--0-|-----------2----|---2----|
 E|----------|-----------0----|----------------|-3---------3----|-3------|

Verse 1
[Em] I've finally di[Cadd9]scovered what makes you tic[G]k,
[Em] And I can't say I[Cadd9] miss it or that you should be [G]too proud of it,
[Em] Now I'm driving a[Cadd9]way, wi[G]shing you would've stayed,
[Em] Know I'll never fo[Cadd9]rget you, I hope things work ou[G]t for you that way,
[Asus2] Because we've been here be[Cmaj7]fore and it's getting o[Em]ld,[G6]
[Asus2] We've been fighting this [Cmaj7]fight never taking the[Em#7] time to let things grow
Chorus
[Em] Oh no, I don't know w[G]hat to do, I don't know [Cadd9]what to say
to make you [C#m7b5]stay, to make you stay[Cmaj7].
[Em] I feel like this is s[G]o surreal, I don't know w[Cadd9]hat's the deal,
Wish you had [C#m7b5]stayed, wish you had staye[Cmaj7]d
Int Em7 |Cadd9 |G | ||x2
Verse 2
[Em] I've finally di[Cadd9]scovered just how you fe[G]el,
[Em] You had fallen in [Cadd9]love and expected a re[G]action,
Some strange kind of attraction,
And I [Em]didn't ask you q[Cadd9]uestions, no I[G], I just ran away,
[Em] Now I'm patiently w[Cadd9]aiting for a resp[G]onse you'd send one day,
[Asus2] I didn't think anything would [C#m7b5]come of it,
But I guess I could be [Cmaj7]wrong with this,
Hey, I'm only a man, [Em#7]I'm only a man
Chorus
[Em] Oh no, I don't know w[G]hat to do, I don't know w[Cadd9]hat to say
to make you [C#m7b5]stay, to make you stay.[Cmaj7]
[Em] I feel like this is s[G]o surreal, I don't know w[Cadd9]hat's the deal,
Wish you had [C#m7b5]stayed, wish you had staye[Cmaj7]d[C]
Bridge
[A]Finally we're g[Cadd9]etting somewhere, [G]Finding out just w[D]ho we really are,
[A]Finally we're g[Cadd9]etting somewhere no[G]w[D]
[A]Finally we're g[Cadd9]etting somewhere, [G]Finding out just w[D]ho we really are,
[A]Finally we've g[Cadd9]otten past the th[Em#7]ings we see and who we really [Em]are
Chorus
[Em] Oh no, I don't know w[G]hat to do, I don't know w[Cadd9]hat to say
to make you [C#m7b5]stay, to make you st[Cmaj7]ay.
[Em] I feel like this is s[G]o surreal, I don't know w[Cadd9]hat's the deal,
Wish you had [C#m7b5]stayed, wish you had staye[Cmaj7]d
[Em] Oh no, I don't know w[G]hat to do, I don't know w[Cadd9]hat to say
to make you [C#m7b5]stay, to make you st[Cmaj7]ay.
[Em] I feel like this is s[G]o surreal, I don't know w[Cadd9]hat's the deal,
Wish you had [C#m7b5]stayed, wish you had staye[Cmaj7]d
Outro Em |Cadd9 |G |
 
 e|----------|----0-0----0----|----3-3----3----|----3-3----3----|---3----|
 B|----------|----0-0----0----|----3-3----3----|----3-3----3----|---3----|
 G|----------|----0-0--0-0----|----0-0--0-0----|----0-0--0-0--0-|---0----|
 D|--2h4-2p0-|-2-------2-2--0-|----2-2--2-2----|----0-0--0-0--0-|---0----|
 A|----------|-----------2----|-3---------3--0-|-----------2----|---2----|
 E|----------|-----------0----|----------------|-3---------3----|-3------|

|Em |Cadd9 |G |
 
 ----------|----0-0----0----|----3-3----3----|----3-3----3----|--3----|
 ----------|----0-0----0----|----3-3----3----|----3-3----3----|--3----|
 ----------|----0-0--0-0----|----0-0--0-0----|----0-0--0-0--0-|--0----|
 --2h4-2p0-|-2-------2-2--0-|----2-2--2-2----|----0-0--0-0--0-|--0----|
 ----------|-----------2----|-3---------3--0-|-----------2----|--2----|
 ----------|-----------0----|----------------|-3---------3----|--3----|


Important: The song above is NOT stored on the Chordie server. The original song is hosted at www.azchords.com. Chordie works as a search engine and provides on-the-fly formatting. Chordie does not index songs against artists'/composers' will. To remove this song please click here.

Text color:
Chord color:
Chord grids: 
Font size:    
Page size: 

A Asus2 C C#m7b5 Cadd9 Cmaj7 D Em Em#7 G G6
Rate #3 of 10 versions

Login - add to songbook

SHARE PAGE  




You need to log in to post comments