Guitar Tabs, Chords and Lyrics
Update 25:10. 13:00. Site is back up running again. Songbooks are recovered. Woring on getting search back up..


Heavy Lies the Crown   The Scene Aesthetic

 
 e|----------------0-----3-----3------------|
 b|----------------0-----3-----3------------|
 g|----------------0-----0-----0------------|
 d|--2/4--2-0-2----2-----2-----0------------|
 a|----------------2-----3-----0------------|
 e|----------------0-----0-----0------------|

 


 


 Verse:(X4)


 

 
 e|----------------0-----3-----3------------|
 b|----------------0-----3-----3------------|
 g|----------------0-----0-----0------------|
 d|--2/4--2-0-2----2-----2-----0------------|
 a|----------------2-----3-----0------------|
 e|----------------0-----0-----0------------|

 


 


 Pre-Chorus:(X2)


 

 
 e|--0----0----0----0--|
 b|--0----0----0----0--|
 g|--2----0----0----0--|
 d|--2----2â??---2----2--|
 a|--0----3----2----2--|
 e|--0----0----0----0--|

 


 


 Chorus:(X2)


 

 
 e|--0----3----3----0----0---|
 b|--0----3----3----0----0---|
 g|--0----0----0----0----0---|
 d|--2----0----2----2----2---|
 a|--2----0----3----3----2---|
 e|--0----0----0----0----0---|

 


 


 Intro to next verse:(X2)


 

 
 e|----------------0-----3-----3------------|
 b|----------------0-----3-----3------------|
 g|----------------0-----0-----0------------|
 d|--2/4--2-0-2----2-----2-----0------------|
 a|----------------2-----3-----0------------|
 e|----------------0-----0-----0------------|

 


 


 Verse:


 (Hit the 6th string pretty hard when you do the 3-2-0 part)


 

 
 e|-------0-0-0-0--3-3-3-3---3-3-3-3-3-3-3-----|
 B|-------0-0-0-0--3-3-3-3---3-3-3-3-3-3-3-----|
 G|-------0-0-0-0--0-0-0-0---0-0-0-0-0-0-0-----|[2X]
 D|-------2-2-2-2--2-2-2-2---0-0-0-0-0-0-0-----|
 A|-------2-2-2-2--3-3-3-3---0-0-0-0-0-0-0-----|
 E|-3-2-0-0-0-0-0--0-0-0-0---0-0-0-0-0-0-0-----|
 e|-0-0-0-0--3-3-3-3---3-3-3-3-3-3-3-----|
 B|-0-0-0-0--3-3-3-3---3-3-3-3-3-3-3-----|
 G|-0-0-0-0--0-0-0-0---0-0-0-0-0-0-0-----|
 D|-2-2-2-2--2-2-2-2---0-0-0-0-0-0-0-----|
 A|-2-2-2-2--3-3-3-3---0-0-0-0-0-0-0-----|
 E|-0-0-0-0--0-0-0-0---0-0-0-0-0-0-0-----|
 e|----------0-0-0-0--3-3-3-3---3-3-3-3-3-3-3-----|
 B|----------0-0-0-0--3-3-3-3---3-3-3-3-3-3-3-----|
 G|----------0-0-0-0--0-0-0-0---0-0-0-0-0-0-0-----|
 D|----------2-2-2-2--2-2-2-2---0-0-0-0-0-0-0-----|
 A|----------2-2-2-2--3-3-3-3---0-0-0-0-0-0-0-----|
 E|----3-2-0-0-0-0-0--0-0-0-0---0-0-0-0-0-0-0-----|
 e|-0-0-0-0--3-3-3-3---3-3-3-3-3-3-3-----|
 B|-0-0-0-0--3-3-3-3---3-3-3-3-3-3-3-----|
 G|-0-0-0-0--0-0-0-0---0-0-0-0-0-0-0-----|
 D|-2-2-2-2--2-2-2-2---0-0-0-0-0-0-0-----|
 A|-2-2-2-2--3-3-3-3---0-0-0-0-0-0-0-----|
 E|-0-0-0-0--0-0-0-0---0-0-0-0-0-0-0-----|

 


 


 Pre-Chorus:


 

 
 e|--0----0----0----0-0-0-0-0-0-0-0-0-0|
 b|--0----0----0----0-0-0-0-0-0-0-0-0-0|
 g|--0----0----0----0-0-0-0-0-0-0-0-0-0|
 d|--2----2â??---2----2-2-2-2-2-2-2-2-2-2|
 a|--2----2----2----3-3-3-3-3-3-3-3-3-3|
 e|--0----0----0----0-0-0-0-0-0-0-0-0-0|

 


 


 Chorus:(X2)


 

 
 e|--0----3----3----0----0---|
 b|--0----3----3----0----0---|
 g|--0----0----0----0----0---|
 d|--2----0----2----2----2---|
 a|--2----0----3----3----2---|
 e|--0----0----0----0----0---|

 


 


 


 Verse:


 couldnt get this verse=/


 


 Outro:(X2)


 

 
 e|----------------0-----3-----3------------|
 b|----------------0-----3-----3------------|
 g|----------------0-----0-----0------------|
 d|--2/4--2-0-2----2-----2-----0------------|
 a|----------------2-----3-----0------------|
 e|----------------0-----0-----0------------|


Important: The song above is NOT stored on the Chordie server. The original song is hosted at www.azchords.com. Chordie works as a search engine and provides on-the-fly formatting. Chordie does not index songs against artists'/composers' will. To remove this song please click here.

This song is displayed as text-only. Transposing and tuning is only available for chordpro-songs.
Rate #10 of 10 versions

Login - add to songbook

SHARE PAGE  




You need to log in to post comments