Guitar Tabs, Chords and Lyrics
Server problems seems to be fixed. Chordie has been experiencing problems with songs disappearing. These issues now seems to be fixed, but still verifying the fix. If you find anything strange, please email admin@chordie.com.


Acquainted  The Weeknd

Intro
==============================================================================
x3
 
 eb|----------|---------||----------|----------||
 Bb|----------|---------||----------|----------||
 Gb|----------|---------||----------|----------||
 Db|----------|---------||----------|----------||
 Ab|----------|---------||----------|----------||
 Eb|--4-4-4-4-|-2-2-2-2-||--4-4-4-4-|-(2)------||

Verse 1
==============================================================================
[G#m] [F#] [G#m]  
 
 eb|--4----------------|--2------------||-4-----------------------------------|
 Bb|--4----------------|--2------------||-4-----------------------------------|
 Gb|--4----------------|--3------------||-4-----------------------------------|
 Db|--6----------------|--4------------||-6-----------------------------------|
 Ab|--6----------------|--4------------||-6-----------------------------------|
 Eb|--4----------------|--2------------||-4-----------------------------------|

Baby you're no goo-ood, 'cause they warned me 'bout your type, girl, I've
been [F#]ducking left and right. [G#m]Baby you're no goo-[F#]ood.
Think I [G#m]fell for you, I fell for you, I fell for yo[F#]u
Pre-Chorus
==============================================================================
You got me puttin' [G#m]time in, [F#]time in
No-[G#m]body got me feeling this [F#]way
You probably think I'm [G#m]lyin', [F#]lyin'
I'm [G#m]used to b**ches comin' right [F#]'way. You got me touchin' on your
Chorus
==============================================================================
Riff B end Riff B
[E] [F#] [G#m] [B]  
 
 eb|--0-----|--2--------------------------|--4----|--7-----------------------||
 Bb|--0-----|--2--------------------------|--4----|--7-----------------------||
 Gb|--1-----|--3--------------------------|--4----|--8-----------------------||
 Db|--2-----|--4--------------------------|--6----|--9-----------------------||
 Ab|--2-----|--4--------------------------|--6----|--9-----------------------||
 Eb|--0-----|--2--------------------------|--4----|--7-----------------------|| 

body, You got me touchin' on your body. To say that we're in love
E F# G#m (tacet)
is dangerous, but girl I'm so glad we're ac-quainted, oh-oh
I'll get you touchin' on your [E]body, [F] I'll get you touchin' on your
[G#m]body. [B] I know I'd rather be com-[E]placent, but [F#]girl I'm so glad we're
* NOTE THIS TIME G#m AGAIN
ac-[G#m]quainted, we're ac-[G#m]quainted
Verse 2
==============================================================================
[G#m]Baby, you're no go[F#]od. All my [G#m]niggas think I'm crazy
'cause I'm [F#]thinkin' 'bout us lately, but [G#m]really if I cou-o[F#]uld
I'd for-[G#m]get about you, 'get about you, 'get ab[F#]out you..
Pre-Chorus
==============================================================================
You got me puttin' [G#m]time in, [F#]time in
No-[G#m]body got me feeling this [F#]way
You probably think I'm [G#m]lyin', [F#]lyin'
I'm [G#m]used to b**ches comin' right.[F#]..
Chorus
==============================================================================
You got me touchin' on your [E]body, [F#] You got me touchin' on your [G#m]body.
[B] To say that we're in love is [E]dangerous, but [F#]girl I'm so glad we're
G#m (tacet)
ac-quainted, oh-oh, I got you touchin' on your
[E]body, [F#] I got you touchin' on your [G#m]body. [B] I know I gotta be
* NOTE G#m AGAIN
com-[E]placent, but [F#]girl I'm so glad we're ac-[G#m]quainted, we're ac-[G#m]quainted
Interlude
==============================================================================
[C#m] [(C#m)] [G#m]  
 
 eb|--4---------------------|------------------------------------|------------|
 Bb|--5---------------------|------------------------------------|--4---------|
 Gb|--6---------------------|------------------------------------|--4---------|
 Db|--6---------------------|------------------------------------|--6---------|
 Ab|--4---------------------|------------------------------------|--6---------|
 Eb|------------------------|------------------------------------|--4---------|

Momma caught me cryin', cryin', cryin', cryin', 'cause I won't find
[F#] [D#m] [C#m]  
 
 eb|--------------------|------------------------|--4-------------------------|
 Bb|--------------------|------------------------|--5-------------------------|
 Gb|--------------------|-3----------------------|--6-------------------------|
 Db|--------------------|-4-------------4--------|--6-------------------------|
 Ab|--------------------|---------------6--------|--4-------------------------|
 Eb|--------------------|------------------------|----------------------------|

somebody that's real (she wants somebody that's real). 'Cause every time
[(C#m)] [G#m] [F#]  
 
 eb|--------|------------------------|--4------------------------|------------|
 Bb|--------|------------------------|--4------------------------|------------|
 Gb|--------|------------------------|--4------------------------|--3---------|
 Db|--------|------------------------|--6------------------------|--4---------|
 Ab|--------|------------------------|--6------------------------|------------|
 Eb|--------|------------------------|--4------------------------|------------|

I try to, try to, try to run, the fast life keeps gaining on me (fast life
[D#m] [C#m] [D#m]  
 
 eb|---------------------|--4----------------------------------------|---6----|
 Bb|---------------------|--5----------------------------------------|---7----|
 Gb|---------------------|--6----------------------------------------|---8----|
 Db|------4--------------|--6----------------------------------------|---8----|
 Ab|------6--------------|--4----------------------------------------|---6----|
 Eb|---------------------|-------------------------------------------|--------|

keeps gaining (sh*t) on me). But ever since I met you, I couldn't believe
[(D#m)] [G#m] [F#] [C#m]  
 
 eb|----------|-------|--4------------------------|--2--------------|--4------|
 Bb|----------|-------|--4------------------------|--2--------------|--5------|
 Gb|----------|-------|--4------------------------|--3--------------|--6------|
 Db|----------|-------|--6------------------------|--4--------------|--6------|
 Ab|----------|-------|--6------------------------|--4--------------|--4------|
 Eb|----------|-------|--4------------------------|--2--------------|---------|

what you did. So com-fort me babe, ain't no rush from me babe. Ouh-ouh
[(C#m)] [E] [F#]  
 
 eb|-----|--------------------------||--0-----|--2----------------------------|
 Bb|-----|--------------------------||--0-----|--2----------------------------|
 Gb|-----|--------------------------||--1-----|--3----------------------------|
 Db|-----|--------------------------||--2-----|--4----------------------------|
 Ab|-----|--------------------------||--2-----|--4----------------------------|
 Eb|-----|--------------------------||--0-----|--2----------------------------|

I'll keep on touchin' on your body I'll keep on touchin' on
[G#m] [B] [E]  
 
 eb|-----4--------------------------|--7---------------------------|--0-------|
 Bb|-----4--------------------------|--7---------------------------|--0-------|
 Gb|-----4--------------------------|--8---------------------------|--1-------|
 Db|-----6--------------------------|--9---------------------------|--2-------|
 Ab|-----6--------------------------|--9---------------------------|--2-------|
 Eb|-----4--------------------------|--7---------------------------|--0-------|

your body To say that we're in love is dangerous
F# G#m (tacet)
 
 eb|----2---------------------|--4-------------|------------------------------|
 Bb|----2---------------------|--4-------------|------------------------------|
 Gb|----3---------------------|--4-------------|------------------------------|
 Db|----4---------------------|--6-------------|------------------------------|
 Ab|----4---------------------|--6-------------|------------------------------|
 Eb|----2---------------------|--4-------------|------------------------------|

But girl I'm so glad we're acquainted, oh-oh. I got you touchin' on your
Chorus
==============================================================================
[E]body. [F#] I got you touchin' on your [G#m]body. [B] I know I'd rather be
* NOTE G#m AGAIN
com[E]placent, but [F#]girl I'm so glad we're ac[G#m]quainted, we're ac[G#m]quainted
Spacey-Interlude (Percs, Ambience, etc)
==============================================================================
Outro
==============================================================================
Riff C end Riff C
[D#m] [F#] [F#/A#] [D#m]  
 
 eb|----------------------------|---------------------------------------------|
 Bb|--7-----------------11------|-14-------7----------------------------------|
 Gb|--8-----------------11------|-15-------8----------------------------------|
 Db|--8-----------------11------|-16-------8----------------------------------|
 Ab|--6-----------------9-------|-13-------6----------------------------------|
 Eb|----------------------------|---------------------------------------------|

I'm not tryin' to talk at all 'Cause I'm tryna to love you crazy
[D#m]Put some more in-[F#]side your cu[F#/A#]p, [D#m] and drink till you numb the pain
I got you touchin' on your [D#m]body,[F#] [F#/A#] these girls keep [D#m]touchin' on their
body. They got accustomed to the [D#m]life we liv[F#]e, these [F#/A#]girls born in[D#m]
the nineties are dangerous. I got 'em thinkin' that they [D#m]want me
[F#] [F#/A#] Although they [D#m]know they not the only, I got 'em wantin' to
em[D#m]brace their si[F#]ns. These [F#/A#]girls born ii-[D#m]in the nineties are dangerous.
[D#m] [F#] [F#/A#] [D#m] 

Important: The song above is NOT stored on the Chordie server. The original song is hosted at www.azchords.com. Chordie works as a search engine and provides on-the-fly formatting. Chordie does not index songs against artists'/composers' will. To remove this song please click here.

Text color:
Chord color:
Chord grids: 
Font size:    
Page size: 

B C#m D#m E F F# F#/A# G#m
Rate #1 of 3 versions

Jango Player

Login - add to songbook

SHARE PAGE  



You need to log in to post comments