Guitar Tabs, Chords and Lyrics
Server problems seems to be fixed. Chordie has been experiencing problems with songs disappearing. These issues now seems to be fixed, but still verifying the fix. If you find anything strange, please email admin@chordie.com.


La-La-La-Lies  The Who

Gtr I (E A D G B E) - 'Pete Townshend - Electric Guitar'
Intro
Q=163(8=s8)
[G5]  
[4/4] Gtr I
Q E E +Q Q Q E E +Q Q Q E E +Q Q Q E E +Q Q
 
 |----------------|----------------|----------------|----------------||
 |----------------|----------------|----------------|----------------||
 |----------------|----------------|----------------|----------------||
 |----------------|----------------|----------------|----------------||
 |-5----5-(5)-----|-5----5-(5)-----|-5----5-(5)-----|-5----5-(5)-----||
 |-3----3-(3)-----|-3----3-(3)-----|-3----3-(3)-----|-3----3-(3)-----||

1st - 3rd Verses
$
[G5]Q E E +Q Q Q E E +Q Q [C]Q E E +Q Q [D]Q E E +Q Q
 
 ||-----------------|----------------|----------------|-----------------|
 ||o----------------|----------------|-5----5-(5)-----|-7----7-(7)------|
 ||-----------------|----------------|-5----5-(5)-----|-7----7-(7)------|
 ||-----------------|----------------|-5----5-(5)-----|-7----7-(7)------|
 ||o-5----5-(5)-----|-5----5-(5)-----|-3----3-(3)-----|-5----5-(5)------|
 ||--3----3-(3)-----|-3----3-(3)-----|----------------|-----------------|

[G5]Q E E +Q Q Q E E +Q Q [C5]Q E E +Q Q [D5]Q E E +Q Q
 
 |----------------|----------------|----------------|----------------||
 |----------------|----------------|-5----5-(5)-----|-7----7-(7)-----||
 |----------------|----------------|-5----5-(5)-----|-7----7-(7)-----||
 |----------------|----------------|-5----5-(5)-----|-7----7-(7)-----||
 |-5----5-(5)-----|-5----5-(5)-----|-3----3-(3)-----|-5----5-(5)-----||
 |-3----3-(3)-----|-3----3-(3)-----|----------------|----------------||

Chorus
To Coda
[C]Q E [G]E H [C]Q E [G]E H [C]W [D]W
 
 |-------------|-------------|----------|--------||
 |-5----3------|-5----3------|-5--------|-7-----o||
 |-5----4------|-5----4------|-5--------|-7------||
 |-5----5------|-5----5------|-5--------|-7------||
 |-3----5------|-3----5------|-3--------|-5-----o||
 |------3------|------3------|----------|--------||

Interlude
[D]Q E E +Q Q Q E E +Q Q Q E E +Q Q Q E E +E E E E
 
 |----------------|----------------|----------------|------------------||
 |-7----7-(7)--7--|-7----7-(7)--7--|-7----7-(7)--7--|-7----7-(7)-x-x-x-||
 |-7----7-(7)--7--|-7----7-(7)--7--|-7----7-(7)--7--|-7----7-(7)-x-x-x-||
 |-7----7-(7)--7--|-7----7-(7)--7--|-7----7-(7)--7--|-7----7-(7)-x-x-x-||
 |-5----5-(5)-----|-5----5-(5)-----|-5----5-(5)-----|-5----5-(5)-------||
 |----------------|----------------|----------------|------------------||

Bridge
[D]Q E E +Q Q Q E E +Q Q [G5]Q E E +Q Q Q E E +Q Q
 
 |----------------|----------------|----------------|----------------|
 |-7----7-(7)-----|-7----7-(7)-----|----------------|----------------|
 |-7----7-(7)-----|-7----7-(7)-----|----------------|----------------|
 |-7----7-(7)-----|-7----7-(7)-----|-5----5-(5)-----|-5----5-(5)-----|
 |-5----5-(5)-----|-5----5-(5)-----|-5----5-(5)-----|-5----5-(5)-----|
 |----------------|----------------|-3----3-(3)-----|-3----3-(3)-----|

D.S. al Coda
[A5]Q E E +Q Q Q E E +Q Q [D]Q. E +H Q. E +H
 
 |----------------|----------------|---------------|---------------||
 |----------------|----------------|-7----7-(7)----|-7----7-(7)----||
 |----------------|----------------|-7----7-(7)----|-7----7-(7)----||
 |-7----7-(7)-----|-7----7-(7)-----|-7----7-(7)----|-7----7-(7)----||
 |-7----7-(7)-----|-7----7-(7)-----|-5----5-(5)----|-5----5-(5)----||
 |-5----5-(5)-----|-5----5-(5)-----|---------------|---------------||

Instrumental Bridge
&
[A5]Q. E +H Q. E +H [D]q E E +Q Q [E]Q. E +H
 
 |---------------|---------------|----------------|-0----0-(0)----|
 |---------------|---------------|-7----7-(7)-----|-9----9-(9)----|
 |---------------|---------------|-7----7-(7)-----|-9----9-(9)----|
 |-7----7-(7)----|-7----7-(7)----|-7----7-(7)-----|-9----9-(9)----|
 |-7----7-(7)----|-7----7-(7)----|-5----5-(5)-----|-7----7-(7)----|
 |-5----5-(5)----|-5----5-(5)----|----------------|---------------|

[A5]Q. E +H Q. E +Q Q [D]Q E E +H [E]Q. E +H
 
 |---------------|----------------|---------------|---------------|
 |---------------|----------------|-7----7-(7)----|-9----9-(9)----|
 |---------------|----------------|-7----7-(7)----|-9----9-(9)----|
 |-7----7-(7)----|-7----7-(7)-----|-7----7-(7)----|-9----9-(9)----|
 |-7----7-(7)----|-7----7-(7)-----|-5----5-(5)----|-7----7-(7)----|
 |-5----5-(5)----|-5----5-(5)--5--|---------------|---------------|

[D]Q. [A]E +H [D]Q. [A]E +H [D]W [E]W
 
 |---------------|---------------|----------|-0----||
 |-7----5-(5)----|-7----5-(5)----|-7--------|-9----||
 |-7----6-(6)----|-7----6-(6)----|-7--------|-9----||
 |-7----7-(7)----|-7----7-(7)----|-7--------|-9----||
 |-5----7-(7)----|-5----7-(7)----|-5--------|-7----||
 |------5-(5)----|------5-(5)----|----------|------||

4th Verse
[A5]Q E E +Q Q Q E E +Q Q [D]Q E E +Q Q [E]Q E E +Q Q
 
 |----------------|----------------|----------------|-0----0-(0)------|
 |----------------|----------------|-7----7-(7)-----|-9----9-(9)------|
 |----------------|----------------|-7----7-(7)-----|-9----9-(9)------|
 |-7----7-(7)-----|-7----7-(7)-----|-7----7-(7)-----|-9----9-(9)------|
 |-7----7-(7)-----|-7----7-(7)-----|-5----5-(5)-----|-7----7-(7)------|
 |-5----5-(5)-----|-5----5-(5)-----|----------------|-----------------|

[A]Q E E +Q Q Q E E +Q Q [D]Q E E +Q Q [E]Q E E +Q Q
 
 |----------------|----------------|----------------|-----------------||
 |----------------|----------------|-7----7-(7)-----|-9----9-(9)------||
 |-6----6-(6)-----|-6----6-(6)-----|-7----7-(7)-----|-9----9-(9)------||
 |-7----7-(7)-----|-7----7-(7)-----|-7----7-(7)-----|-9----9-(9)------||
 |-7----7-(7)-----|-7----7-(7)-----|-5----5-(5)-----|-7----7-(7)------||
 |-5----5-(5)-----|-5----5-(5)-----|----------------|-----------------||

Chorus
[D]Q. [A]E H [D]Q. [A]E H [D]W [E]W
 
 |-------------|-------------|----------|-0----||
 |-7----5------|-7----5------|-7--------|-9----||
 |-7----6------|-7----6------|-7--------|-9----||
 |-7----7------|-7----7------|-7--------|-9----||
 |-5----7------|-5----7------|-5--------|-7----||
 |------5------|------5------|----------|------||

5th Verse
Q. E +H Q. E +H Q. E +H Q. E +H
 
 |---------------|---------------|---------------|---------------|
 |---------------|---------------|-7----7-(7)----|-9----9-(9)----|
 |-6----6-(6)----|-6----6-(6)----|-7----7-(7)----|-9----9-(9)----|
 |-7----7-(7)----|-7----7-(7)----|-7----7-(7)----|-9----9-(9)----|
 |-7----7-(7)----|-7----7-(7)----|-5----5-(5)----|-7----7-(7)----|
 |-5----5-(5)----|-5----5-(5)----|---------------|---------------|

Q. E +H Q. E +H Q. E +H Q. E +H
 
 |---------------|---------------|---------------|---------------||
 |---------------|---------------|-7----7-(7)----|-9----9-(9)----||
 |-6----6-(6)----|-6----6-(6)----|-7----7-(7)----|-9----9-(9)----||
 |-7----7-(7)----|-7----7-(7)----|-7----7-(7)----|-9----9-(9)----||
 |-7----7-(7)----|-7----7-(7)----|-5----5-(5)----|-7----7-(7)----||
 |-5----5-(5)----|-5----5-(5)----|---------------|---------------||

Out-Chorus
[A]Q. E +H Q. E +H [D]Q. E +H
 
 |---------------|---------------|---------------|
 |---------------|---------------|-7----7-(7)----|
 |-6----6-(6)----|-6----6-(6)----|-7----7-(7)----|
 |-7----7-(7)----|-7----7-(7)----|-7----7-(7)----|
 |-7----7-(7)----|-7----7-(7)----|-5----5-(5)----|
 |-5----5-(5)----|-5----5-(5)----|---------------|

[E] [A5] >
W W +H H
 
 |----------|----------|-------------*|
 |-9--------|----------|-------------*|
 |-9--------|----------|-------------*|
 |-9--------|-7--------|-(7)---------*|
 |-7--------|-7--------|-(7)---------*|
 |----------|-5--------|-(5)---------*|


Important: The song above is NOT stored on the Chordie server. The original song is hosted at www.azchords.com. Chordie works as a search engine and provides on-the-fly formatting. Chordie does not index songs against artists'/composers' will. To remove this song please click here.

Text color:
Chord color:
Chord grids: 
Font size:    
Page size: 

A A5 C C5 D D5 E G G5
Rate #1 of 4 versions

Jango Player

Login - add to songbook

SHARE PAGE  



You need to log in to post comments