Guitar Tabs, Chords and Lyrics
Server problems seems to be fixed. Chordie has been experiencing problems with songs disappearing. These issues now seems to be fixed, but still verifying the fix. If you find anything strange, please email admin@chordie.com.


Tattoo  The Who

Intro
Q=112
[Bb] [Fmaj7] [Cadd9] 
[4/4] Gtrs I, II
S S E E E S S E E E S S E E E S S E E E S S E E E S S E E E
 
 |-------0---------0---|-------0---------0---|-------0---------0---|
 |-----6---6-----6---6-|-----6---6-----6---6-|-----3---3-----3---3-|
 |---7---------7-------|---5---------5-------|---5---------5-------|
 |-8---------8---------|-7---------7---------|-5---------5---------|
 |---------------------|---------------------|---------------------|
 |---------------------|---------------------|---------------------|

1st Verse
[Bbsus2]S S E E E S S E E E S S E E E S S E E E [Bb]S S E E E S S E E E
 
 |-------0---------0---|-------0---------0---||-------0---------0----|
 |-----1---1-----1---1-|-----1---1-----1---1-||-----6---6-----6---6--|
 |---3---------3-------|---3---------3-------||---7---------7--------|
 |-3---------3---------|-3---------3---------||-8---------8----------|
 |---------------------|---------------------||----------------------|
 |---------------------|---------------------||----------------------|

[Fmaj7]S S E E E S S E E E [Cadd9]S S E E E S S E E E [Dsus2]S S E E E S S E E E
 
 |-------0---------0---|-------0---------0---|-------0---------0----|
 |-----6---6-----6---6-|-----3---3-----1---1-|-----3---3-----3---3--|
 |---5---------5-------|---5---------3-------|---2---------2--------|
 |-7---------7---------|-5---------3---------|-0---------0----------|
 |---------------------|---------------------|----------------------|
 |---------------------|---------------------|----------------------|

[Bb]S S E E E S S E E E [Fmaj7]S S E E E S S E E E [Cadd9]S S E E E [Bbsus2]S S E E E
 
 |-------0---------0---|-------0---------0---|-------0---------0----|
 |-----6---6-----6---6-|-----6---6-----6---6-|-----3---3-----1---1--|
 |---7---------7-------|---5---------5-------|---5---------3--------|
 |-8---------8---------|-7---------7---------|-5---------3----------|
 |---------------------|---------------------|----------------------|
 |---------------------|---------------------|----------------------|

Bridge
[Dsus2]S S E E E S S E E E a [D]W [D]Q E. S [G5]Q Q [D]Q E. S H
 
 |-------0---------0---|-0h2--------||-2--2--2-3--3--|-2--2--3-2----|
 |-----3---3-----3---3-|---3--------||-3--3--3-3--3--|-3--3--3-3----|
 |---2---------2-------|---2--------||-2--2--2-0--0--|-2--2--2-2----|
 |-0---------0---------|---0--------||-0--0--0-0--0--|-0--0--0-0----|
 |---------------------|------------||---------------|--------------|
 |---------------------|------------||---------3--3--|--------------|

[G5] Gt[A]r I
W E E E E E E E S S
| | | | | | | | |
[/] [/] [/] [/] [/] [/] [/] [/] [/]  
Gtr II
Q Q Q Q E E E E E E E E
 
 |-2--2--3--3--|-------------------|
 |-3--3--3--3--|-2-2-2-2-2-2-2-2---|
 |-2--2--0--0--|-2-2-2-2-2-2-2-2---|
 |-0--0--0--0--|-2-2-2-2-2-2-2-2---|
 |-------------|-0-0-0-0-0-0-0-0---|
 |-------3--3--|-------------------|

2nd & 3rd Verses
E S S E S S E E E E [Bb]E E E E E E E E
| | | | | | | | | | | | | |
[/] [/] [/] [/] [/] [/] [/] [/] [/] [/] [/] [/] [/] [/] 
E E E E E E E E S S E E E S S E E E
 
 |---------------------||--------0---------0---|
 |-2-2---2-2---2-2-2-2-||o-----6---6-----6---6-|
 |-2-2---2-2---2-2-2-2-||----7---------7-------|
 |-2-2---2-2---2-2-2-2-||--8---------8---------|
 |-0-0---0-0---0-0-0-0-||o---------------------|
 |---------------------||----------------------|

[F] [C] [Bb] [D5] 
[E]| [E] [E]| [E] [E]| [E] [E]| [E] [E]| [E] [E]| [E] [E]| [E] [E]| [E] [E]| [E] [E]| [E] [B]|
[/] [/] [/] [/] [/] [/] [/] [/] [/] [/] [/] 
S S E E E S S E E E S S E E E S S E E E S S E E E S S E E E
 
 |-------0---------0---|-------0---------0---|-------0---------0----|
 |-----6---6-----6---6-|-----3---3-----3---3-|-----1---1-----3---3--|
 |---5---------5-------|---5---------5-------|---3---------2--------|
 |-7---------7---------|-5---------5---------|-3---------0----------|
 |---------------------|---------------------|----------------------|
 |---------------------|---------------------|----------------------|

[Bb] [F] [C] 
[E]| [E] [E]| [E] [E]| [E] [E]| [E] [E]| [E] [E]| [E] [E]| [E] [E]| [E] [E]| [E] [E]| [E] [E]| [E] [E]|[E]
[/] [/] [/] [/] [/] [/] [/] [/] [/] [/] [/] [/] 
S S E E E S S E E E S S E E E S S E E E S S E E E S S E E E
 
 |-------0---------0---|-------0---------0---|-------0---------0----|
 |-----6---6-----6---6-|-----6---6-----6---6-|-----3---3-----3---3--|
 |---7---------7-------|---5---------5-------|---5---------5--------|
 |-8---------8---------|-7---------7---------|-5---------5----------|
 |---------------------|---------------------|----------------------|
 |---------------------|---------------------|----------------------|

Chorus
[Bb]H [Dsus2]H [D]W [D5]W [D]W[DsDs4]
| | |
[/] [/] [/]  
Gtrs I, II
S S E E E S S E E E S S E E. S H E E E E E E E E Q E. S Q Q
 
 |-------0---------0---|-------2--3-2----||-----------------|-2--2--3-2-----|
 |-----1---1-----3---3-|-----3----3-3----||-3-------3-------|-3--3--3-3-----|
 |---3---------2-------|---2--------2----||-2-------2-------|-2--2--2-2-----|
 |-3---------0---------|-0----------0----||-0-------0-------|-0--0--0-0-----|
 |---------------------|-----------------||---4-2-0---4-2-0-|---------------|
 |---------------------|-----------------||-----------------|---------------|

[D5]E E E E E E E E [D]Q E. [DsDs4]S Q Q Q [D]Q Q [A/C#]Q Q [Bm]Q Q [A]Q
 
 |-----------------|-2--2--3-2-----|-------------|--------------|
 |-3-------3-------|-3--3--3-3-----|----7-----5--|----3-----2---|
 |-2-------2-------|-2--2--2-2-----|----7-----6--|----4-----2---|
 |-0-------0-------|-0--0--0-0-----|----7-----7--|----4-----2---|
 |---4-2-0---4-2-0-|---------------|----5-----4--|----2-----0---|
 |-----------------|---------------|-------------|--------------|

[G5] [A] |-3-|
Q E. S E E E E E S S E S S S S E E S S S
 
 |-----------------|-0-0-0-0-0-0-0-0-0---0-0-0-|
 |----3--------3---|-2-2-2-2-2-2-2-2-2---2-2-2-|
 |-0--0--0-0---0---|-2-2-2-2-2-2-2-2-2-2-2-2-2-|
 |-0--0--0-0-0-0---|-2-2-2-2-2-2-2-2-2-2-------|
 |-----------------|-0-----0-0-------0-0-------|
 |-3--3--3-3-3-3-0-|---------------------------|

Interlude
Q E. S E E Q [Bb]S S E E E S S E E E
 
 |-0--0-----------||-------0---------0----|
 |-2--2-----------||-----6---6-----6---6--|
 |-2--2--2--------||---7---------7--------|
 |-2--2--2-2-2----||-8---------8----------|
 |-0--0----0-0----||----------------------|
 |----------------||----------------------|

[Fmaj7]S S E E E S S E E E [Cadd9]S S E E E S S E E E
 
 |-------0---------0---|-------0---------0---|
 |-----6---6-----6---6-|-----3---3-----3---3-|
 |---5---------5-------|---5---------5-------|
 |-7---------7---------|-5---------5---------|
 |---------------------|---------------------|
 |---------------------|---------------------|

[Bbsus2]S S E E E S S E E E S S E E E S S E E E
 
 |-------0---------0---|-------0---------0-----||
 |-----1---1-----1---1-|-----1---1-----1---1--o||
 |---3---------3-------|---3---------3---------||
 |-3---------3---------|-3---------3-----------||
 |---------------------|----------------------o||
 |---------------------|-----------------------||

4th Verse
[Bb]Gtr I[F] [C]
[E]| [E] [E]| [E] [E]| [E] [E]| [E] [E]| [E] [E]| [E] [E]| [E] [E]| [E] [E]| [E] [E]| [E] [E]| [E] [E]|[E]
[/] [/] [/] [/] [/] [/] [/] [/] [/] [/] [/] [/] 
Gtr II
S S E E E S S E E E S S E E E S S E E E S S E E E S S E E E
 
 |-------0---------0---|-------0---------0---|-------0---------0----|
 |-----6---6-----6---6-|-----6---6-----6---6-|-----3---3-----3---3--|
 |---7---------7-------|---5---------5-------|---5---------5--------|
 |-8---------8---------|-7---------7---------|-5---------5----------|
 |---------------------|---------------------|----------------------|
 |---------------------|---------------------|----------------------|

[Bb] [Dsus2] [Bb] [F] 
[E]| [E] [E]| [E] [E]| [E] [E]| [E] [E]| [E] [E]| [E] [E]| [E] [E]| [E] [E]| [E] [E]| [E] [E]| [E] [E]|[E]
[/] [/] [/] [/] [/] [/] [/] [/] [/] [/] [/] [/] 
S S E E E S S E E E S S E E E S S E E E S S E E E S S E E E
 
 |-------0---------0---|-------0---------0---|-------0---------0----|
 |-----1---1-----3---3-|-----6---6-----6---6-|-----6---6-----6---6--|
 |---3---------2-------|---7---------7-------|---5---------5--------|
 |-3---------0---------|-8---------8---------|-7---------7----------|
 |---------------------|---------------------|----------------------|
 |---------------------|---------------------|----------------------|

[C]E E E E E E E E [Bbsus2]E E E E [D5]E E E E [D]E E E E E E E E W
| | | | | | | | | | | | | | | | | | | | |
[/] [/] [/] [/] [/] [/] [/] [/] [/] [/] [/] [/] [/] [/] [/] [/] [/] [/] [/] [/] [/] 
S S E E E S S E E E S S E E E S S E E E S S E E. S H W
 
 |-------0---------0---|-------0---------0---|-------2----3-2-------|-^2----*|
 |-----3---3-----3---3-|-----1---1-----3---3-|-----3------3-3-------|-^3----*|
 |---5---------5-------|---3---------2-------|---2----------2-------|-^2----*|
 |-5---------5---------|-3---------0---------|-0------------0-------|-^0----*|
 |---------------------|---------------------|----------------------|-------*|
 |---------------------|---------------------|----------------------|-------*|


Important: The song above is NOT stored on the Chordie server. The original song is hosted at www.azchords.com. Chordie works as a search engine and provides on-the-fly formatting. Chordie does not index songs against artists'/composers' will. To remove this song please click here.

Text color:
Chord color:
Chord grids: 
Font size:    
Page size: 

A A/C# B Bb Bbsus2 Bm C Cadd9 D D5 Dsus2 E F Fmaj7 G5
Rate #1 of 4 versions

Jango Player

Login - add to songbook

SHARE PAGE  




You need to log in to post comments