Guitar Tabs, Chords and Lyrics
Major upgrade!! After one year development the new version of Chordie is now online! Please give feedback.


I Hate Everything About You   Three Days Grace

 
 E|------------------------------------------|
 B|------------------------------------------|
 G|----4-6b-------4-6b-------4-6b-------4-6b-|
 D|----4-6b-------4-6b-------4-6b-------4-6b-|
 A|------------------------------------------|
 D|-4--------0h4--------0h4--------0h4-------|

 


 


 [Intro Continued] (clean)


 

 
 E|--------------------------------------------|
 B|--------------------------------------------|
 G|------4-6b-------4-6b-------4-6b-------4-6b-|
 D|------4-6b-------4-6b-------4-6b-------4-6b-|
 A|--------------------------------------------|
 D|-0-0--------0-0--------0-0--------0-0-------|x1

 


 


 [Verse 1] (clean)


 

 
 E|------------------------------------------|
 B|------------------------------------------|
 G|----4-6b-------4-6b-------4-6b-------4-6b-|
 D|----4-6b-------4-6b-------4-6b-------4-6b-|
 A|------------------------------------------|
 D|-4--------0h4--------0h4--------0h4-------|

 


 


 [Verse 1] Continued (clean)


 

 
 E|--------------------------------------------|
 B|--------------------------------------------|
 G|------4-6b-------4-6b-------4-6b-------4-6b-|
 D|------4-6b-------4-6b-------4-6b-------4-6b-|
 A|--------------------------------------------|
 D|-0-0--------0-0--------0-0--------0-0-------|x4

 


 


 [Pre-cborus] (distortion)


 

 
 E|---------------------------------------|
 B|---------------------------------------|
 G|---------------------------------------|
 D|-2--------------------0------------6---|
 A|-2--------------------0------------4---|
 D|-2--------------------0----------------|x1

 


 


 [Cborus] (Heavy Distortion)


 

 
 E|----------------------------------------------------------------------------------------|
 B|----------------------------------------------------------------------------------------|
 G|----------------------------------------------------------------------------------------|
 D|-4-4----0-0----7-7-7-7-77-7--2-2-2-2-2-----4-4-4-4-44-4--0-0-0-0-0----2-2-2-2-22-2--7-6-|
 A|-4-4----0-0----7-7-7-7-77-7--2-2-2-2-2-----4-4-4-4-44-4--0-0-0-0-0----2-2-2-2-22-2--7-6-|
 D|-4-4----0-0----7-7-7-7-77-7--2-2-2-2-2-----4-4-4-4-44-4--0-0-0-0-0----2-2-2-2-22-2--7-6-|x2

 


 


 [Cborus Breakdown] (clean)


 

 
 E|------------------------------------------|
 B|------------------------------------------|
 G|----4-6b-------4-6b-------4-6b-------4-6b-|
 D|----4-6b-------4-6b-------4-6b-------4-6b-|
 A|------------------------------------------|
 D|-4--------0h4--------0h4--------0h4-------|

 


 


 [Chorus Breakdown Continued (clean)


 

 
 E|--------------------------------------------|
 B|--------------------------------------------|
 G|------4-6b-------4-6b-------4-6b-------4-6b-|
 D|------4-6b-------4-6b-------4-6b-------4-6b-|
 A|--------------------------------------------|
 D|-0-0--------0-0--------0-0--------0-0-------|x1

 


 


 [Verse 2] (clean)


 

 
 E|------------------------------------------|
 B|------------------------------------------|
 G|----4-6b-------4-6b-------4-6b-------4-6b-|
 D|----4-6b-------4-6b-------4-6b-------4-6b-|
 A|------------------------------------------|
 D|-4--------0h4--------0h4--------0h4-------|

 


 


 [Verse 2 Continued] (clean)


 

 
 E|--------------------------------------------|
 B|--------------------------------------------|
 G|------4-6b-------4-6b-------4-6b-------4-6b-|
 D|------4-6b-------4-6b-------4-6b-------4-6b-|
 A|--------------------------------------------|
 D|-0-0--------0-0--------0-0--------0-0-------|x2

 


 


 [Pre-cborus 2] (distortion)


 

 
 E|---------------------------------------|
 B|---------------------------------------|
 G|---------------------------------------|
 D|-2--------------------0------------6---|
 A|-2--------------------0------------4---|
 D|-2--------------------0----------------|x1

 


 


 [Cborus 2] (Heavy Distortion)


 

 
 E|----------------------------------------------------------------------------------------|
 B|----------------------------------------------------------------------------------------|
 G|----------------------------------------------------------------------------------------|
 D|-4-4----0-0----7-7-7-7-77-7--2-2-2-2-2-----4-4-4-4-44-4--0-0-0-0-0----2-2-2-2-22-2--7-6-|
 A|-4-4----0-0----7-7-7-7-77-7--2-2-2-2-2-----4-4-4-4-44-4--0-0-0-0-0----2-2-2-2-22-2--7-6-|
 D|-4-4----0-0----7-7-7-7-77-7--2-2-2-2-2-----4-4-4-4-44-4--0-0-0-0-0----2-2-2-2-22-2--7-6-|x2

 


 


 [Bridge](Clean)


 

 
 E|--|---------------------------------------------------------------------------|
 B|------------------------------------------------------------------------------|
 G|------------------------------------------------------------------------------|
 D|-6--7--9--6--7--9--6--7--9--6--7/6-----6--7--9--6--7--9--6--7--9--6--7/6------|
 A|------------------------------------7-------------------------------------7/3-|
 D|------------------------------------------------------------------------------|x1

 


 


 [Pre Cborus 3] (Clean)


 

 
 E|------------------------------------------|
 B|------------------------------------------|
 G|----4-6b-------4-6b-------4-6b-------4-6b-|
 D|----4-6b-------4-6b-------4-6b-------4-6b-|
 A|------------------------------------------|
 D|-4--------0h4--------0h4--------0h4-------|x1

 


 


 [Cborus 3] (Heavy Distortion)


 

 
 E|----------------------------------------------------------------------------------------|
 B|----------------------------------------------------------------------------------------|
 G|----------------------------------------------------------------------------------------|
 D|-4-4----0-0----7-7-7-7-77-7--2-2-2-2-2-----4-4-4-4-44-4--0-0-0-0-0----2-2-2-2-22-2--7-6-|
 A|-4-4----0-0----7-7-7-7-77-7--2-2-2-2-2-----4-4-4-4-44-4--0-0-0-0-0----2-2-2-2-22-2--7-6-|
 D|-4-4----0-0----7-7-7-7-77-7--2-2-2-2-2-----4-4-4-4-44-4--0-0-0-0-0----2-2-2-2-22-2--7-6-|x4

 


 


 [Ending] (distortion)


 

 
 E|-----------------|
 B|-----------------|
 G|-----------------|
 D|-----------------|
 A|--4~-------------|
 D|--4~-------------|


Important: The song above is NOT stored on the Chordie server. The original song is hosted at www.azchords.com. Chordie works as a search engine and provides on-the-fly formatting. Chordie does not index songs against artists'/composers' will. To remove this song please click here.

This song is displayed as text-only. Transposing and tuning is only available for chordpro-songs.
Rate #1 of 5 versions

Login - add to songbook

SHARE PAGE  




You need to log in to post comments