Guitar Tabs, Chords and Lyrics
Server problems seems to be fixed. Chordie has been experiencing problems with songs disappearing. These issues now seems to be fixed, but still verifying the fix. If you find anything strange, please email admin@chordie.com.


Firebreather   Thrice

 
 B|--------------------------------------------------|
 G|--------------------------------------------------|
 D|--------------------------------------------------|
 A|--0--2--2--0--2----0--0-2---0--0-2----------------| X 4
 E|--0--2--2--0--2----0--0-2---0--0-2----------------|
 A|--0--2--2--0--2----0--0-2---0--0-2----------------|

 


 


 [Verse 1] 


 

 
 B|--------------------------------------------------|
 G|--------------------------------------------------|
 D|--------------------------------------------------|
 A|--------------------------------------------------|
 E|--5--7--7--2--3-----0--0-2------------------------|
 A|-------------------------------5--5-7-------------|
 B|--------------------------------------------------|
 G|--------------------------------------------------|
 D|--------------------------------------------------|
 A|--0--2--2--10--9----5--5-7---4--4-5---------------|
 E|--0--2--2--10--9----5--5-7---4--4-5---------------|
 A|--0--2--2--10--9----5--5-7---4--4-5---------------|
 B|--------------------------------------------------|
 G|--------------------------------------------------|
 D|--------------------------------------------------|
 A|--------------------------------------------------|
 E|--5--7--7--2--3-----0--0-2------------------------|
 A|-------------------------------5--5-7-------------|
 B|--------------------------------------------------|
 G|--------------------------------------------------|
 D|--------------------------------------------------|
 A|--0--2--2--10--9----5--5-7---4--4-5---------------|
 E|--0--2--2--10--9----5--5-7---4--4-5---------------|
 A|--0--2--2--10--9----5--5-7---4--4-5---------------|

 


 


 [Cborus] 


 

 
 B|-------------------------------------------------------|
 G|-------------------------------------------------------|
 D|-------------------------------------------------------|
 A|--9-9-9-9-9-9-9-9-10-10-10-10---0-7-7-7--0-7-7-7-------|
 E|--9-9-9-9-9-9-9-9-10-10-10-10---0-7-7-7--0-7-7-7-------|
 A|--9-9-9-9-9-9-9-9-10-10-10-10---0-7-7-7--0-7-7-7-------|

 


 PM . .


 

 
 B|-------------------------------------------------------|
 G|-------------------------------------------------------|
 D|-------------------------------------------------------|
 A|--9-9-9-9-9-9-9-9-10-10-10-10---0-7â??(7)--0-7â??(7)-------|
 E|--9-9-9-9-9-9-9-9-10-10-10-10---0-7-(7)--0-7-(7)-------|
 A|--9-9-9-9-9-9-9-9-10-10-10-10---0-7â??(7)--0-7â??(7)-------|

 


 PM . .


 


 [Instrumental] 


 

 
 B|--------------------------------------------------|
 G|--------------------------------------------------|
 D|--------------------------------------------------|
 A|--0--2--2--0--2----0--0-2---0--0-2----------------| X 4
 E|--0--2--2--0--2----0--0-2---0--0-2----------------|
 A|--0--2--2--0--2----0--0-2---0--0-2----------------|

 


 


 [Verse 2] (Bass Guitar Only)


 


 [(Bass)]  

 
 D|--------------------------------------------------|
 A|--------------------------------------------------|
 E|--5--7--7--2--3-----0--0-2------------------------|
 A|-------------------------------5--5-7-------------|
 D|--------------------------------------------------|
 A|--------------------------------------------------|
 E|--------------------------------------------------| X 4
 A|--0--2--2--10--9----5--5-7---4--4-5---------------|

 


 


 [Cborus 2] 


 

 
 B|-------------------------------------------------------|
 G|-------------------------------------------------------|
 D|-------------------------------------------------------|
 A|--9-9-9-9-9-9-9-9-10-10-10-10---0-7-7-7--0-7-7-7-------|
 E|--9-9-9-9-9-9-9-9-10-10-10-10---0-7-7-7--0-7-7-7-------|
 A|--9-9-9-9-9-9-9-9-10-10-10-10---0-7-7-7--0-7-7-7-------|

 


 PM . .


 

 
 B|-------------------------------------------------------|
 G|-------------------------------------------------------|
 D|-------------------------------------------------------|
 A|--9-9-9-9-9-9-9-9-10-10-10-10---0-7â??(7)--0-7â??(7)-------|
 E|--9-9-9-9-9-9-9-9-10-10-10-10---0-7-(7)--0-7-(7)-------|
 A|--9-9-9-9-9-9-9-9-10-10-10-10---0-7â??(7)--0-7â??(7)-------|

 


 PM . .


 


 

 
 B|-------------------------------------------------------|
 G|-------------------------------------------------------|
 D|-------------------------------------------------------|
 A|--9-9-9-9-9-9-9-9-10-10-10-10---0-7-7-7--0-7-7-7-------|
 E|--9-9-9-9-9-9-9-9-10-10-10-10---0-7-7-7--0-7-7-7-------|
 A|--9-9-9-9-9-9-9-9-10-10-10-10---0-7-7-7--0-7-7-7-------|

 


 PM . .


 


 

 
 B|-------------------------------------------------------|
 G|-------------------------------------------------------|
 D|-------------------------------------------------------|
 A|--9-9-9-9-9-9-9-9-10-10-10-10---0-7â??7-7-7-7-7-7--------|
 E|--9-9-9-9-9-9-9-9-10-10-10-10---0-7-7-7-7-7-7-7--------|
 A|--9-9-9-9-9-9-9-9-10-10-10-10---0-7â??7-7-7-7-7-7--------|

 


 PM .


 [Outro] 


 

 
 B|---------------------------------------------------------------------|
 G|---------------------------------------------------------------------|
 D|---------------------------------------------------------------------|
 A|--5--5--5--5--5--5--5-0-0-0---5--5--5--5--5--5--5-0-0-0--------------|
 E|--5--5--5--5--5--5--5-0-0-0---5--5--5--5--5--5--5-0-0-0--------------|
 A|--5--5--5--5--5--5--5-0-0-0---5--5--5--5--5--5--5-0-0-0--------------|
 B|---------------------------------------------------------------------|
 G|---------------------------------------------------------------------|
 D|---------------------------------------------------------------------|
 A|--2--2--2--2--2--2--2-0-0-0---2--2--2--2--2--2--2-0-0-0--------------|
 E|--2--2--2--2--2--2--2-0-0-0---2--2--2--2--2--2--2-0-0-0--------------|
 A|--2--2--2--2--2--2--2-0-0-0---2--2--2--2--2--2--2-0-0-0--------------| 

 


 


 [Outro] 


 

 
 B|------10-----------15-14-----------10------------15-14-15------------|
 G|---12----12-10~----------15----12----12-10~--------------------------|
 D|---------------------------------------------------------------------| .
 A|---------------------------------------------------------------------| .
 E|---------------------------------------------------------------------| .
 A|---------------------------------------------------------------------| .

 


 .


 

 
 B|---14-12----12~-------------14-12-----12~----10~---------------------| .
 G|---------12-------------12---------12--------------------------------| .
 D|---------------------------------------------------------------------| .
 A|---------------------------------------------------------------------| X2
 E|---------------------------------------------------------------------|
 A|---------------------------------------------------------------------|
 B|---------------------------------------------------------------------|
 G|---12~----10~-----/15~-------------12~----10~-----/15~---------------|
 D|---------------------------------------------------------------------| .
 A|---------------------------------------------------------------------| .
 E|---------------------------------------------------------------------| .
 A|---------------------------------------------------------------------| .

 


 .


 

 
 B|---------------------------------------------------------------------| .
 G|---8~----7~-----/12~-------------8~----7~-----/12~-------------------| .
 D|---------------------------------------------------------------------| .
 A|---------------------------------------------------------------------| X2
 E|---------------------------------------------------------------------|
 A|---------------------------------------------------------------------|
 B|-------------------------------------------------10\-----------------|
 G|---12~----------------12â??13p12â??12~---------12------------------------|
 D|---------------------------------------------------------------------|
 A|---------------------------------------------------------------------|
 E|---------------------------------------------------------------------|
 A|---------------------------------------------------------------------|
 B|---------------------------------------------------------------------|
 G|---8~----------------8â??10p8â??8~-----7~--------------------------------|
 D|---------------------------------------------------------------------|
 A|---------------------------------------------------------------------|
 E|---------------------------------------------------------------------|
 A|---------------------------------------------------------------------| 


Important: The song above is NOT stored on the Chordie server. The original song is hosted at www.azchords.com. Chordie works as a search engine and provides on-the-fly formatting. Chordie does not index songs against artists'/composers' will. To remove this song please click here.

This song is displayed as text-only. Transposing and tuning is only available for chordpro-songs.
Rate #1 of 1 versions

Jango Player

Login - add to songbook

SHARE PAGE  



You need to log in to post comments