Guitar Tabs, Chords and Lyrics
Server problems seems to be fixed. Chordie has been experiencing problems with songs disappearing. These issues now seems to be fixed, but still verifying the fix. If you find anything strange, please email admin@chordie.com.


Identity Crisis  Thrice

identity crisis
thrice
RHYTHM GUITAR
(C&P THRICE 2000)
CHORDS
 
 |----------------------------------------------------------|
 |----------------------------------------------------------|
 |----------------------------------------------------------|
 |----------------------------------4-----------7-----------|
 |------7--------10--------5--------2-----------5-----------|
 |------5---------8--------3--------------------------------|

[A] [C] [G] [B] [D] 
INTRO
 
 |-----------------------------------------------------------|
 |-----------------------------------------------------------|
 |-----------------------------------------------------------|
 |-------------4-----4-----4^5-4--------2-----0-----4-----4^5|
 |-------2-------2-2---2-2--------3-3-3---3-3---3-3---3-3----|
 |-0-0-0---0-0-----------------------------------------------|
 |-----------------------------------------------------------|
 |-----------------------------------------------------------|
 |-----------------------------------------------------------|
 |-4--------------------4-----4^5-4------4-----5-----7-----5-|
 |----------2-----0------------------5-5---5-5---5-5---5-5---|
 |----3-3-3---3-3---3-3---3-3--------------------------------|
 |-----------------------------------------------------------|
 |-----------------------------------------------------------|
 |-----------------------------------------------------------|
 |-4----------------4-----4-----4^5-4--------2-----0-----4---|
 |---5--------2-------2-2---2-2--------3-3-3---3-3---3-3---33|
 |------0-0-0---0-0------------------------------------------|
 |-----------------------------------------------------------|
 |-----------------------------------------------------------|
 |-----------------------------------------------------------|
 |-4^5-4--------------------4-----4^5-4------1----2-----4----|
 |--------------2-----0------------------2-2---2-2--2-2---2-2|
 |--------3-3-3---3-3---3-3---3-3----------------------------|
 |-----------------------------------------------------------|
 |-----------------------------------------------------------|
 |-----------------------------------------------------------|
 |-2-----1---------------------------------------------------|
 |---2-2-----------------------------------------------------|
 |-----------------------------------------------------------|

VERSE
 
 |-----------------------------------------------------------|
 |-----------------------------------------------------------|
 |-----------------------------------------------------------|
 |-----------------------------------------------------------|
 |-7`3--7`3--------------------------------------------------|
 |------------------A-CHORD--C-CHORD--G-CHORD--B-CHORD-------|

CHORUS
 
 |-----------------------------------------------------------|
 |-----------------------------------------------------------|
 |-----------------------------------------------------------|
 |-------------4-----4-----4^5-4------------------------4----|
 |-------2-------2-2---2-2------------------------2-------2-2|
 |-0-0-0---0-0--------------------E-CHORD---0-0-0---0-0------|
 |-----------------------------------------------------------|
 |-----------------------------------------------------------|
 |-----------------------------------------------------------|
 |-4-----4^5-4---------------------------2----0-----4----4^54|
 |---2-2---------------------------3-3-3---3-3--3-3---3-3----|
 |---------------E-CHORD-------------------------------------|
 |-----------------------------------------------------------|
 |-----------------------------------------------------------|
 |-----------------------------------------------------------|
 |-----------------------2-----0-----4-----4^-5--------------|
 |-----------------3-3-3---3-3---3-3---3-3-------------------|
 |--C-CHORD-------------------------------------C-CHORD-BCHORD
 |-----------------------------------------------------------|
 |-----------------------------------------------------------|
 |-----------------------------------------------------------|
 |-----------------------------------------------------------|
 |-7`3--7`3-------------let-ring-out-------------------------|
 |-----------------------------------------------------------|

VERSE
 
 |-----------------------------------------------------------|
 |-----------------------------------------------------------|
 |-----------------------------------------------------------|
 |-----------------------------------------------------------|
 |-----------------------------------------------------------|
 |-A-CHORD--C-CHORD--G-CHORD--B-CHORD------------------------|

REPEAT CHORUS
BRIDGE
 
 |-----------------------------------------------------------|
 |-----------------------------------------------------------|
 |-----------------------------------------------------------|
 |-----------------------------------------------------------|
 |--THIS-IS-THE-HARDEST-PART-OF-THE-WHOLE-SONG......YOU-PLAY-|
 |-----------------------------------------------------------|
 |-----------------------------------------------------------|
 |-----------------------------------------------------------|
 |-----------------------------------------------------------|
 |-----------------------------------------------------------|
 |--NOTHING!!!!!--JUST-STAND-AND-LOOK-COOL-------------------|
 |-----------------------------------------------------------|

OUTRO
 
 |-----------------------------------------------------------|
 |-----------------------------------------------------------|
 |-----------------------------------------------------------|
 |-------------------4^5-5-5-4^5-4---------------------------|
 |---------------------------------5-------------------------|
 |-E-CHORD--D-CHORD------------------C-CHORD--B-CHORD--------|
 |-----------------------------------------------------------|
 |-----------------------------------------------------------|
 |-----------------------------------------------------------|
 |-----------------------------------------------------------|
 |----------------------------9`10-10-10-10-10--7`9-9-9-9-9--|
 |-E-CHORD--D-CHORD--C-CHORD--7`-8--8--8--8--8--5`7-7-7-7-7--|
 |-----------------------------------------------------------|
 |-----------------------------------------------------------|
 |-----------------------------------------------------------|
 |------------------------4^5-5-5-4^5-4----------------------|
 |-5-7----------------------------------5--------------------|
 |-3-5--E-CHORD--D-CHORD-------------------C-CHORD--B-CHORD--|
 |------------------------------------------------------0----|
 |------------------------------------------------------0----|
 |------------------------------------------------------0----|
 |------------------------------------------------------2----|
 |----------------------------9`1010107`9-9-9--5-7-5-4--2----|
 |-E-CHORD--D-CHORD--C-CHORD--7`8-8-8-5`7-7-7--3-5-3-2--0----|

LEAD GUITAR
(C&P THRICE 2000)
CHORDS
 
 |----------------------------------------------------------|
 |----------------------------------------------------------|
 |----------------------------------------------------------|
 |----------------------------------------------------------|
 |------7---------------------10----------------------------|
 |------5----------------------8----------------------------|

[A] [C]  
INTRO
 
 |-----------------------------------------------------------|
 |-----------------------------------------------------------|
 |-----------------------------------------------------------|
 |-------------4-----4-----4^5-4--------2-----0-----4-----4^5|
 |-------2-------2-2---2-2--------3-3-3---3-3---3-3---3-3----|
 |-0-0-0---0-0-----------------------------------------------|
 |-----------------------------------------------------------|
 |-----------------------------------------------------------|
 |-----------------------------------------------------------|
 |-4--------------------4-----4^5-4------4-----5-----7-----5-|
 |----------2-----0------------------5-5---5-5---5-5---5-5---|
 |----3-3-3---3-3---3-3---3-3--------------------------------|
 |-----------------------------------------------------------|
 |-----------------------------------------------------------|
 |-----------------------------------------------------------|
 |-4----------------4-----4-----4^5-4--------2-----0-----4---|
 |---5--------2-------2-2---2-2--------3-3-3---3-3---3-3---33|
 |------0-0-0---0-0------------------------------------------|
 |-----------------------------------------------------------|
 |-----------------------------------------------------------|
 |-----------------------------------------------------------|
 |-4^5-4--------------------4-----4^5-4------1----2-----4----|
 |--------------2-----0------------------2-2---2-2--2-2---2-2|
 |--------3-3-3---3-3---3-3---3-3----------------------------|
 |-----------------------------------------------------------|
 |-----------------------------------------------------------|
 |-----------------------------------------------------------|
 |-2-----1---------------------------------------------------|
 |---2-2-----------------------------------------------------|
 |-----------------------------------------------------------|

VERSE
 
 |-----------------------------------------------------------|
 |-----------------------------------------------------------|
 |------------------------------------16--16-16-16-16-16-16--|
 |-5`2--5`2--4^5-4-------------------------------------------|
 |----------------5-------------------14--14-14-14-14-14-14--|
 |------------------A-CHORD--C-CHORD-------------------------|
 |-----------------------------------------------------------|
 |-----------------------------------------------------------|
 |-16`14-14-14-14`12-12-12--11--11-11-11-11-11-11--8--8-8-8-8|
 |-----------------------------------------------------------|
 |-14`12-12-12-12`10-10-10---9---9--9--9--9--9--9--6--6-6-6-6|
 |-----------------------------------------------------------|
 |-----------------------------------------------------------|
 |-----------------------------------------------------------|
 |-8-8-------------------------------------------------------|
 |-----------------------------------------------------------|
 |-6-6-------------------------------------------------------|
 |-----------------------------------------------------------|

CHORUS
 
 |-----------------------------------------------------------|
 |-----------------------------------------------------------|
 |--------------------------------12-11-9--------------------|
 |-------------4-----4-----4^5-4------------------------4----|
 |-------2-------2-2---2-2--------10--9-7---------2-------2-2|
 |-0-0-0---0-0------------------------------0-0-0---0-0------|
 |-----------------------------------------------------------|
 |-----------------------------------------------------------|
 |--------------12-11-14-12-11-12----------------------------|
 |-4-----4^5-4---------------------------2----0-----4----4^54|
 |---2-2--------10--9-12-10--9-10--3-3-3---3-3--3-3---3-3----|
 |-----------------------------------------------------------|
 |-----------------------------------------------------------|
 |-----------------------------------------------------------|
 |-5-7-9-12-11-12--------------------------------12-7-4------|
 |-----------------------2-----0-----4-----4^-5--------------|
 |-3-5-7-10--9-10--3-3-3---3-3---3-3---3-3-------10-5-6------|
 |-----------------------------------------------------------|
 |-----------------------------------------------------------|
 |-----------------------------------------------------------|
 |-----------------------------------------------------------|
 |-5`2--5`2--4^5-4-------------------------------------------|
 |-----------------5`7--let-ring-out-------------------------|
 |-----------------------------------------------------------|

VERSE
 
 |-----------------------------------------------------------|
 |-----------------------------------------------------------|
 |-------------------16--16-16-16-16-16-16-16`14--14-14-14`--|
 |-----------------------------------------------------------|
 |-------------------14--14-14-14-14-14-14-14`12--12-12-12`--|
 |-A-CHORD--C-CHORD------------------------------------------|
 |-----------------------------------------------------------|
 |-----------------------------------------------------------|
 |-12-12--11--11-11-11-11-11-11--8--8-8-8-8-8-8--------------|
 |-----------------------------------------------------------|
 |-10-10---9---9--9--9--9--9--9--6--6-6-6-6-6-6--------------|
 |-----------------------------------------------------------|

REPEAT CHORUS
BRIDGE
 
 |-----------------------------------------------------------|
 |-----------------------------------------------------------|
 |-----------------------------------------------------------|
 |-9--5-4-5-4-4^5-4-----------------------------5-----5------|
 |------------------5`7--3-2-3-2-2^3-2----7-7-7---7-7---7----|
 |-------------------------------------3-------------------3-|
 |-----------------------------------------------------------|
 |-----------------------------------------------------------|
 |-----------------------------------------------------------|
 |--------------4^5-4----------5----5-----------------4^5-4--|
 |------5`7-7-7-------5--7-7-7---7-7--7-------5`7-7-7------5-|
 |-3-3----------------------------------3-3-3----------------|

OUTRO
 
 |-----------------------------------------------------------|
 |-----------------------------------------------------------|
 |-12-11-9--12-11--2^4-4-4-2^4-2---5-7-9--12-11-8--12-11-12--|
 |-------------------------------4---------------------------|
 |-10--9-7--10--9------------------3-5-7--10--9-6--10--9-10--|
 |-----------------------------------------------------------|
 |-----------------------------------------------------------|
 |-----------------------------------------------------------|
 |-14-12-11-12-11-16-14--12--11`12-12-12-12-12--9`11-11-11-11|
 |-----------------------------------------------------------|
 |-12-10--9-10--9-14-12--10---9`10-10-10-10-10--7`-9--9--9--9|
 |-----------------------------------------------------------|
 |-----------------------------------------------------------|
 |-----------------------------------------------------------|
 |-11--7-9-----11-12-14-12-11-12-11--2^4-4-4-2^4-2----5-7-9--|
 |-------------------------------------------------4---------|
 |--9--5-7--10--9-10-12-10--9-10--9-------------------3-5-7--|
 |-----------------------------------------------------------|
 |-----------------------------------------------------------|
 |-----------------------------------------------------------|
 |-11----------------------------------7^9-9-9--5^7-7-7--4^5-|
 |-----------------------------------------------------------|
 |--9----10--12--14--15--14--12-14-10------------------------|
 |-----------------------------------------------------------|
 |------0----------------------------------------------------|
 |------0----------------------------------------------------|
 |-4----0----------------------------------------------------|
 |---5--2----------------------------------------------------|
 |------2---RING-OUT----THE-END!!!---------------------------|
 |------0----------------------------------------------------|


Important: The song above is NOT stored on the Chordie server. The original song is hosted at www.azchords.com. Chordie works as a search engine and provides on-the-fly formatting. Chordie does not index songs against artists'/composers' will. To remove this song please click here.

Text color:
Chord color:
Chord grids: 
Font size:    
Page size: 

A B C D G
Rate #1 of 1 versions

Login - add to songbook

SHARE PAGE  




You need to log in to post comments