Guitar Tabs, Chords and Lyrics
Server problems seems to be fixed. Chordie has been experiencing problems with songs disappearing. These issues now seems to be fixed, but still verifying the fix. If you find anything strange, please email admin@chordie.com.


Paper Tigers  Thrice

Thrice- "Paper Tigers"
Lead Guitar-Teppei "the ***" Teranishi
(0-0-0)--Triplets,
~ [3]-Let ring out,
r-rest
Drop C Tuning
Intro w/ effects x2
 
 0-0-7p0-2h3-(0-0-0)-7p0-2h3-(0-0-0)-7p0-2h3-

[3] [3] 
 
 -------------------------------------------------------
 --------------------------------------------------------
 --------------------------------------------------------
 ---------------------------------------------------------
 ---------------------------------------------------------
 8p0-2h3-(0-0-0)-8p0-2h3-(0-0-0)-8p0-2h3 

[3] [3] 
Fill before chorus
 
 --------------------------------
 ------------------------------
 --------------------------------
 7p0-7p0-7p0-7p0-------
 -------------------------------
 ------------------------------

Chorus (They preachâ?¦.)
 
 --------------------------------------------------
 ----------------------------------------------------
 ---------------------------------------------------
 -----------------------------7p0-----------------
 ---------------------------------------3--5hh6--
 -0-0-(0-0-0)-0-(0-0-0)-------0-------------

[3] [3]  
 
 -------------------------------------------------
 ----------------------------------5h6p5--------
 --------------------------------7------------7---
 ------------------------------7----------------7-
 ----------------------------5---------------------
 0-0-(0-0-0)-0-(0-0-0)----------------------

[3] [3]  
 
 ------------------------------------------------------
 ------------------------------------------------------
 ----------------------------------------------------
 ------------------------------7p0------------------
 ----------------------------------------3--55h6--
 -0-0-(0-0-0)-0-(0-0-0)--------0--------------

[3] [3]  
 
 --------------------------------------------------
 --------------------------------------------------
 --------------------------------------------------
 --------------------------------------------------
 --------------------------------------------------
 (0-0-0)-0-r-0-r-0-(0-0-0)-0-0-r-0-------

[3] [3]  
 
 --------------------------------------------------
 ----------------------------------------------------
 ---------------------------------------------------
 -----------------------------7p0-----------------
 ---------------------------------------3--5hh6--
 -0-0-(0-0-0)-0-(0-0-0)-------0-------------

[3] [3]  
 
 -------------------------------------------------
 ----------------------------------5h6p5-8-------
 --------------------------------7-------------6-
 ------------------------------7-----------------
 ----------------------------5---------------------
 0-0-(0-0-0)-0-(0-0-0)----------------------
 ------------------------------------------------------
 ------------------------------------------------------
 ----------------------------------------------------
 ------------------------------7p0------------------
 ----------------------------------------3--55h6--
 -0-0-(0-0-0)-0-(0-0-0)--------0--------------

[3] [3]  
 
 --------------------------------------------------
 --------------------------------------------------
 --------------------------------------------------
 --------------------------------------------------
 --------------------------------------------------
 (0-0-0)-0-r-0-r-0-(0-0-0)-0-0-r-0-------

Verse (Listen for the sound) figure out the strumming its simple x4
 
 ------------------------------
 -----------------------------
 ---10--9--7-----------------
 -------------------------------
 ---8---7--5-----------------
 -------------------------------

Fill before chorus (all comes crashing down)
 
 ------------------------------------------
 -------------------------------------------
 ---------------------------------------------
 7p0-7p0-7p0-8p0-8p0-/10\-------
 ---------------------------------------------
 ---------------------------------------------

Chorus (They preachâ?¦.)
 
 -----------------------------------------------------------------------------------------------------------
 -----------------------------7p0----------------------------------------------7---------------7-----------
 ---------------------------------------3--5hh6-----------------------------5--------------------------------
 -0-0-(0-0-0)-0-(0-0-0)------0------------0-00-(0-0-0)-0-(0-0-0)-----------------------------------

[3] [3] [3] [3] 
 
 ------------------------------7p0-------------------------------------------------------------------------
 ----------------------------------------3--55h6-------------------------------------------------------------
 -0-0-(0-0-0)-0-(0-0-0)--------0------------((0-0-0)-0-r-0-r-0-(0-0-0)-0-0-r-0--------------------

[3] [3] [3] [3] 
 
 ----------------------------7p0-----------------------------------------------7----------------------------
 -------------------------------------3--5h6--------------------------------5--------------------------------
 -0-0-(0-0-0)-0-(0-0-0)------0---------- 0-0--(0-0-0)-0-(0-0-0)-----------------------------------

[3] [3] [3] [3] 
 
 ------------------------------7p0--------------------------------------0~-----------------------------------
 ----------------------------------------3--55h6-----------------------0~----------------------------------
 -0-0-(0-0-0)-0-(0-0-0)--------0-----------(00-0-0)-0-r-0-r-0-0~--------------------

[3] [3] [3] 
WE LIGHT THE WORLDS ON THE FIRE
 
 -8-----7---8--10--------------------------8-------7---8---5-----------3h5p3---------------------------
 ---0-0---0--0-----0-0-(0-0-0)-(0-0-0)--0-0----0---0-----0h3h5---------5p3p0-------------------

[3] [3] 
 
 -8-----7---8--10---------------------------88------7---8---5~-------------------------------------------
 ---0-0---0--0-----0-0-(0-0-0)-(0-0-0)---0-0----0---0------------------------------------------------

[3] [3]  
 
 -12-----10--12--13---------------------------12-----10---12---8-----------3h5p3--------------------
 -----0-0---0---0-----0-0-(0-0-0)-(0-0-0)------0-0----0----0-----0h3h5---------5p3p0------------

[3] [3] 
 
 -12-----10--12--13---------------------------------------------------------------------------------------
 -----0-0---0---0-----0-0-(0-0-0)-(0-0-0)--(00-0-0)-0-r-0-r-0-(0-0-0)-0-0-r-0---------------------

[3] [3] [3] [3] 
Interlude with no singing, let notes just ring, first measure x2, second measure hold for about 2 measures
 
 -----------------------|-------------------------------------------------------------------------------------
 -----------------------|-------------------------------------------------------------------------------------
 ---10~---9~--7~~-|-------------------------------------------------------------------------------------
 -----------------------|-------------------------------------------------------------------------------------
 ---8~----7~---5~~-|-------------------------------------------------------------------------------------
 -----------------------|----0~------------------------------------------------------------------------------

Repeat Verse
Ending x4
 
 ----------5/6\5----------------6-8/3----------------------------------------------------------------------
 ------------------------------7-----------------------------------------------------------------------------
 ------7------------7------7--------------------------------------------------------------------------------
 --5--------------------5------------------------------------------------------------------------------------

Ending Continued A x8 , on the 4th and 8th times the riff changes to B
 
 ----------5/6\5------------------8-6h8-------------------------------------------------------------------
 ------7------------7---------7-----------------------------------------------------------------------------
 --5-----------------------5---------------------------------------------------------------------------------

[B]  
 
 ----------5/6\5------------------8-6h8-6h8--------------------------------------------------------------
 --------------------------------7---------------------------------------------------------------------------
 ------7------------7---------7-----------------------------------------------------------------------------
 --5------------------------5---------------------------------------------------------------------------------

if you are still confused, I labeled the first Ending Continued A, and the second Ending Continued B, the order goes AAABAAAB. That should be simple enough, and this concludes my tab, hope you enjoy!
Thrice Message board- Artistambulance

Important: The song above is NOT stored on the Chordie server. The original song is hosted at www.azchords.com. Chordie works as a search engine and provides on-the-fly formatting. Chordie does not index songs against artists'/composers' will. To remove this song please click here.

Text color:
Chord color:
Chord grids: 
Font size:    
Page size: 

B
Rate #1 of 1 versions

Jango Player

Login - add to songbook

SHARE PAGE  



You need to log in to post comments