Guitar Tabs, Chords and Lyrics
Server problems seems to be fixed. Chordie has been experiencing problems with songs disappearing. These issues now seems to be fixed, but still verifying the fix. If you find anything strange, please email admin@chordie.com.


Salt and Shadow  Thrice

[Intro] 
 
 e|-----3---3-------3---3-------3---3-------3---3-----------------------------|
 B|---5---5---5---5---5---5---5---5---5---5---5---5---------------------------|
 G|-5-----------5-----------5-----------5-------------------------------------|
 D|---------------------------------------------------------------------------|
 A|---------------------------------------------------------------------------|
 E|---------------------------------------------------------------------------|

x2
 
 e|-----3---3-------3---3-------3---3-------3---3-----------------------------|
 B|---5---5---5---5---5---5---5---5---5---5---5---5---------------------------|
 G|-4-----------4-----------4-----------4-------------------------------------|
 D|---------------------------------------------------------------------------|
 A|---------------------------------------------------------------------------|
 E|---------------------------------------------------------------------------|

[Verse] 
Same as Intro
 
 e|-----3---3-------3---3-------3---3-------3---3-----------------------------|
 B|---5---5---5---5---5---5---5---5---5---5---5---5---------------------------|
 G|-5-----------5-----------5-----------5-------------------------------------|
 D|---------------------------------------------------------------------------|
 A|---------------------------------------------------------------------------|
 E|---------------------------------------------------------------------------|

x2
 
 e|-----3---3-------3---3-------3---3-------3---3-----------------------------|
 B|---5---5---5---5---5---5---5---5---5---5---5---5---------------------------|
 G|-4-----------4-----------4-----------4-------------------------------------|
 D|---------------------------------------------------------------------------|
 A|---------------------------------------------------------------------------|
 E|---------------------------------------------------------------------------|

[Cborus] 
Starts at 1:50
[Dm]You're here but i[Am]t's clear
You're just [G]salt and shadow
[Dm]Here, but h[Am]alf a world away.
[Dm]You're here but you're n[Am]early a h[Em]ologram, so
[Dm]Near, but st[Am]ill so far a[G]way.
[Verse] 
 
 e|-----3---3-------3---3-------3---3-------3---3-----------------------------|
 B|---5---5---5---5---5---5---5---5---5---5---5---5---------------------------|
 G|-5-----------5-----------5-----------5-------------------------------------|
 D|---------------------------------------------------------------------------|
 A|---------------------------------------------------------------------------|
 E|---------------------------------------------------------------------------|
 e|-----3---3-------3---3-------3---3-------3---3-----------------------------|
 B|---5---5---5---5---5---5---5---5---5---5---5---5---------------------------|
 G|-4-----------4-----------4-----------4-------------------------------------|
 D|---------------------------------------------------------------------------|
 A|---------------------------------------------------------------------------|
 E|---------------------------------------------------------------------------|

[Cborus] 
[Dm]You're here but i[Am]t's clear
You're just [G]salt and shadow
[Dm]Here, but h[Am]alf a world away.
[Dm]You're here but you're n[Am]early a h[Em]ologram, so
[Dm]Near, but st[Am]ill so far a[G]way.
[Bridge] 
 
 e|-----3---3-------3---3-------3---3-------3---3-----------------------------|
 B|---5---5---5---5---5---5---5---5---5---5---5---5---------------------------|
 G|-5-----------5-----------5-----------5-------------------------------------|
 D|---------------------------------------------------------------------------|
 A|---------------------------------------------------------------------------|
 E|---------------------------------------------------------------------------|
 e|-----3---3-------3---3-------3---3-------3---3-----------------------------|
 B|---5---5---5---5---5---5---5---5---5---5---5---5---------------------------|
 G|-4-----------4-----------4-----------4-------------------------------------|
 D|---------------------------------------------------------------------------|
 A|---------------------------------------------------------------------------|
 E|---------------------------------------------------------------------------|

[Final Cborus] 
Starts at 4:40. The lead guitar plays the intro/verse riff here.
[Dm]You're here but i[Am]t's clear
You're just [G]salt and shadow
[Dm]Here, but h[Am]alf a world a[G]way.
 
 e|-----3---3-------3---3-------3---3-------3---3-----------------------------|
 B|---5---5---5---5---5---5---5---5---5---5---5---5---------------------------|
 G|-5-----------5-----------5-----------5-------------------------------------|
 D|---------------------------------------------------------------------------|
 A|---------------------------------------------------------------------------|
 E|---------------------------------------------------------------------------|
 e|-----3---3-------3---3-------3---3-------3---3-----------------------------|
 B|---5---5---5---5---5---5---5---5---5---5---5---5---------------------------|
 G|-4-----------4-----------4-----------4-------------------------------------|
 D|---------------------------------------------------------------------------|
 A|---------------------------------------------------------------------------|
 E|---------------------------------------------------------------------------|

You're here but you're nearly a hologram, so
Near, but still so far away.
[Outro] 
This is the same riff as "Hurricane"! This is the piano melody tabbed for guitar.
 
 e|------------5---------------------5----------------------------------------|
 B|-6/-10~-5-6---5-6-5~----------5-6---5-6-5~---------------------------------|
 G|----------------------5----------------------------------------------------|
 D|-------------------------7~------------------------------------------------|
 A|---------------------------------------------------------------------------|
 E|---------------------------------------------------------------------------|

\\

Important: The song above is NOT stored on the Chordie server. The original song is hosted at www.azchords.com. Chordie works as a search engine and provides on-the-fly formatting. Chordie does not index songs against artists'/composers' will. To remove this song please click here.

Text color:
Chord color:
Chord grids: 
Font size:    
Page size: 

Am Dm Em G
Rate #1 of 1 versions

Login - add to songbook

SHARE PAGE  




You need to log in to post comments