Guitar Tabs, Chords and Lyrics
Server problems seems to be fixed. Chordie has been experiencing problems with songs disappearing. These issues now seems to be fixed, but still verifying the fix. If you find anything strange, please email admin@chordie.com.


Silhouette   Thrice

 
 -0-0-0---0-0-0--10-10-10--0-0-0---0-0-0--100-10-10--8-8-8---8-8-8--10-10-10-8-8-8---8-8-8-10-10-10--
 -0-0-0-r-0-0-0--10-10-10--0-0-0-r-0-0-0--100-10-10--8-8-8-r-8-8-8--10-10-10-8-8-8-r-8-8-8-10-10-10--
 -0-0-0---0-0-0--10-10-10--0-0-0---0-0-0--100-10-10--8-8-8---8-8-8--10-10-10-8-8-8---8-8-8-10-10-10--

 


 


 Background fill (i'll need your help on that one, can't figure the rhythm)


 

 
 --------10~~-
 -----10~~~~~-

 


 --12~~~~~~~--


 

 
 -------------
 -------------
 -------------

 


 


 [Pre-Cborus Riff #1] 


 


 Guitar 1 (the key to this part is to keep the notes sustaining)


 

 
 -----------------------------
 -/10~~^8^10^8-6~~-5-6-5------
 ------------------------5\--- (slide in oonly on repeats)
 -----------------------------
 -----------------------------
 -----------------------------

 


 x8


 Guitar 2


 

 
 ----------------------------
 ----------------------------
 -------5h7----------5------- (slide in oonly on repeats, no need to be precise about the 12th fret)
 -/12\0-----0-/5-3-0---0-3h5-
 ----------------------------
 ----------------------------

 


 


 [Cborus] 


 

 
 -------------------------------
 -------------------------------
 -------------------------------
 --/12\0-10-12-0-/5-3-0-10-0-3-5 (again, slide in only on repeats, no need to be precise about the 12th fret)
 --/12\0-10-12-0-/5-3-0-10-0-3-5
 --/12\0-10-12-0-/5-3-0-10-0-3-5

 


 


 End on


 [----]  


 [----]  


 [----]-10-


 -10-


 -10-


 


 [Bridge] 


 

 
 ----------------------------------------------------------
 ----------------------------------------------------------
 ----------------------------------------------------------
 -8-8-8---8-8-8-10-10-10-8-8-8---8-8-8-10-100-10-000000000-
 -8-8-8-r-8-8-8-10-10-10-8-8-8-r-8-8-8-10-100-10-000000000-
 -8-8-8---8-8-8-10-10-10-8-8-8---8-8-8-10-100-10-000000000-

 


 xxxxxxxx


 and back to [Verse]


 


 [Precborus Riff #2] 


 


 Guitar 1


 

 
 ------------------------
 -----------13~----------
 -14~~-10~~----12~-14~~--
 ------------------------
 ------------------------
 ------------------------

 


 


 Guitar 2


 

 
 ------------------------
 ------------------------
 ------------------------
 -12~~-10~~--8~~---10~~--
 ------------------------
 ------------------------

 


 


 [Pre-Cborus Riff #1] 


 


 [Cborus] 


 


 [Outro] 


 


 Guitar 1 (still can't figure out if they're eight notes or quarter notes)


 

 
 -7-7-7-7-9-9-9-9-10-10-10-10-12-12-12-12-100-10-10-10-14-14-14-14-12-12-12-12-9-9-9-9-
 -x-x-x-x-x-x-x-x--x--x--x--x--x--x--x--x--xx--x--x--x--x--x--x--x--x--x--x--x-x-x-x-x-
 -5-5-5-5-7-7-7-7--8--8--8--8-10-10-10-10--88--8--8--8-12-12-12-12-10-10-10-10-7-7-7-7- 

 


 


 can't figure out perfectly the second part of guitar 1 though, because Dustin's guitar comes in loud. sounds kinda like


 


 

 
 -7-7/1515-141414-141414-141414/15\14-14-14//15\14-14-14/15\14--
 -x-x/-x-x--x-x-x--x-x-x--x-x-x--x--x--x--x---x--x--x--x--x--x--
 -5-5/1313-121212-121212-121212/13\12-12-12//13\12-12-12/13\12--

 


 


 second time it's more like


 


 

 
 -7-7/1515-141414-141414-141414/15\14-14-12//14\12-12-10/12\10--
 -x-x/-x-x--x-x-x--x-x-x--x-x-x--x--x--x--x---x--x--x--x--x--x--
 -5-5/1313-121212-121212-121212/13\12-12-10//12\10-10--8/10\-8--

 


 


 Guitar 2


 

 
 -000000000---0-0-0-0-0---8--8-8-8--8-8-8--88-8-8--8-8-8--8-8-8--8-8-8--8-8-8--
 -000000000-r-0-0-0-0-0-r-8--8-8-8--8-8-8--88-8-8--8-8-8--8-8-8--8-8-8--8-8-8--
 -000000000---0-0-0-0-0---8--8-8-8--8-8-8--88-8-8--8-8-8--8-8-8--8-8-8--8-8-8--

 


 xxxxxxxx ^


 on second time,


 slide in from 12th fret


 instead of pause


 


 and there's also a third overdubbed guitar on second time.. i can only hear


 


 

 
 --------m-------------------m----------------
 --------i-------------------i----------------
 --------s--/17171717171717--s--7~~-----------
 -10h12--s----x-x-x-x-x-x-x--s--x-------------
 --------i--/15151515151515--i--5~~-----------
 --------n-------------------n----------------

 


 g (yes, 7 times) g (to chorus)


 


 [Cborus] 


 


 [Cborus variation on 2nd time] 


 


 Guitar1


 


 

 
 --/12\0-2h3-0-/5-3-0-10-0-/12\0-2h3-0-/5-3--0-10-0-/12\0-2h3-0-/5-3-0-10-0-/12\0-2h3-0-/5-3-0-10------------
 --/12\0-----0-/5-3-0-10-0-/12\0-----0-/5-3--0-10-0-/12\0-----0-/5-3-0-10-0-/12\0-----0-/5-3-0-10------------
 --/12\0-----0-/5-3-0-10-0-/12\0-----0-/5-3--0-10-0-/12\0-----0-/5-3-0-10-0-/12\0-----0-/5-3-0-10------------

 


 


 Guitar 2


 

 
 --/12\0-10-12-0-/5-3-0-10-0-/12\0-10-12-0-//5-3-0-10-0-/12\0-10-12-0-/5-3-0-10-0-/12\0-10-12-0-/5-3-0-10-----
 --/12\0-10-12-0-/5-3-0-10-0-/12\0-10-12-0-//5-3-0-10-0-/12\0-10-12-0-/5-3-0-10-0-/12\0-10-12-0-/5-3-0-10-r---
 --/12\0-10-12-0-/5-3-0-10-0-/12\0-10-12-0-//5-3-0-10-0-/12\0-10-12-0-/5-3-0-10-0-/12\0-10-12-0-/5-3-0-10-----

 


 


 [End] 


 


 

 
 -------
 -------
 -------


Important: The song above is NOT stored on the Chordie server. The original song is hosted at www.azchords.com. Chordie works as a search engine and provides on-the-fly formatting. Chordie does not index songs against artists'/composers' will. To remove this song please click here.

This song is displayed as text-only. Transposing and tuning is only available for chordpro-songs.
Rate #1 of 1 versions

Jango Player

Login - add to songbook

SHARE PAGE  



You need to log in to post comments