Guitar Tabs, Chords and Lyrics
Major upgrade!! After one year development the new version of Chordie is now online! Please give feedback.


Ain't That the Way It Always Ends  Tim McGraw

 
 -------------------------------------------------------------------------------

Ain't that the way that it always end - Tim Mcgraw
 
 ------------------------------------------------------

Tuning: Standard
Intro
 
 e|---------------------------------------------------------------------------|
 B|---------------------------------------------------------------------------|
 G|-----1----h2-----1----h2------1----h2------1-------------------------------|
 D|---------------------------------------------------4-------2---------------|
 A|---------------------------------------------------------------------------|
 E|---------------------------------------------------------------------------|

[E] [Bsus4] [Asus4]  
 
 e|---------------------------------------------------------------------------|
 B|---------------------------------------------------------------------------|
 G|------1-----------4----------2---------------------------------------------|
 D|------2-----------4----------2---------------------------------------------|
 A|------2-----------2--------------------------------------------------------|
 E|---------------------------------------------------------------------------|

(Verse 1)
[E] Johnny [Bsus4]came home b[Asus4]roken-hearted
[E] Said he l[Bsus4]ost his g[Asus4]irl
[E] He bottled [Bsus4]up all the h[Asus4]urt in his heart
Punched a [E]hole in the [Bsus4]wall of his w[Asus4]orld
[E] Now Betty s[Bsus4]he was a b[Asus4]londe-haired beauty
With an [E]eye for a [Bsus4]man who could s[Asus4]pend
[E] She stole his [Bsus4]heart in a p[Asus4]ick-up truck
Then dr[E]ove off in a [Bsus4]Mercedes Be[Asus4]nz
And he said...
(Chorus)
[E] Oh she [Bsus4]looked so i[Asus4]nnocent
[E] Talkin' 'bout [Bsus4]bein' just f[Asus4]riends
[E] Oh and it [Bsus4]don't make a [Asus4]bit of since
[F#m] Ain't that the way that it [Asus4]always ends
[E] [Asus4] [Bsus4]  
(Verse 2)
[E] Sharon [Bsus4]she had a lo[Asus4]ng time dream
And [E]only one [Bsus4]man in her l[Asus4]ife
[E] He kept her [Bsus4]waitin'
But [Asus4]she didn't care
Cuz he [E]promised her he'd [Bsus4]make her his w[Asus4]ife
[E] Now Billy [Bsus4]he had a g[Asus4]ood thing goin'
But he [E]let it [Bsus4]go to his h[Asus4]ead
[E] He got j[Bsus4]ealous l[Asus4]ate one night
She [E]caught them [Bsus4]both in her b[Asus4]ed
And she said...
(Chorus)
[E] Oh she [Bsus4]looked so i[Asus4]nnocent
[E] Talkin' 'bout [Bsus4]bein' just f[Asus4]riends
[E] Oh and it [Bsus4]don't make a [Asus4]bit of since
[F#m] Ain't that the way that it [Asus4]always ends
(Repeat Chorus)
[F#m] Ain't that the way tha[Asus4]t it always ends
[F#m] Ain't that the way tha[Asus4]t it always ends
[F#m] Ain't that the way tha[Asus4]t it always ends
Chords Used:
E Bsus4 Asus4 F#m or if you prefer F#m
 
 e|--------------------------------------------------2------------------------|
 B|--------------------------------------------------2------------------------|
 G|-1------4--------2------2-------------------------2------------------------|
 D|-2------4--------2------2-------------------------4------------------------|
 A|-2------2---------------X-------------------------4------------------------|
 E|------------------------2-------------------------2------------------------|

Also, If you are playing with a second gutiar switch out E, Bsus and Asus for
these chords, Makes a nice sounding duet.
[E] [Bsus4] [Asus4]  
 
 e|-----7--------------7------------5-----------------------------------------|
 B|-----7--------------7------------5-----------------------------------------|
 G|-----9--------------8------------6-----------------------------------------|
 D|-----9--------------9------------7-----------------------------------------|
 A|-----7--------------9------------7-----------------------------------------|
 E|-----7--------------7------------5-----------------------------------------|

Well thats it, enjoy. It's a fun, easy song to play!
| / slide up
| \ slide down
| B hammer-on
| p pull-off
| ~ vibrato
| + harmonic
| x Mute note
===============================================================================

Important: The song above is NOT stored on the Chordie server. The original song is hosted at www.azchords.com. Chordie works as a search engine and provides on-the-fly formatting. Chordie does not index songs against artists'/composers' will. To remove this song please click here.

Text color:
Chord color:
Chord grids: 
Font size:    
Page size: 

Asus4 Bsus4 E F#m
Rate #1 of 1 versions

Login - add to songbook

SHARE PAGE  



You need to log in to post comments