Guitar Tabs, Chords and Lyrics
Major upgrade!! After one year development the new version of Chordie is now online! Please give feedback.


Humble and Kind  Tim McGraw

[Intro] 
 
 e|-x---x-x---x---x-----x---x-x---x---------|
 B|-3---3-3---3---3-----3---3-3---3---------|
 G|-2h4-4-4p2-2p0-0-----2h4-4-4p2-0---------|
 D|-0---0-0---0---0h2---2---2-2---2---------|
 A|-x---x-x---x---x-----2---2-2---2---------|
 E|-3---3-3---3---3-----0---0-0---0---------|

[G]D UUD UUD UUD UDU [Em7]D UUD UUD UUD UDU
 
 e|-x---------x---------x-------------x--------|
 B|-1---------3---------3-------------3--------|
 G|-0---------0---------0-------------0--------|
 D|-0h2-------0h2-------0-------0h2-0-0--------|
 A|-3---------3---------x---0h2-------x--------|
 E|---------------------3-------------3--------|

[C]D UUD UUD UUD UDU [G]D UU [G]D UUD UDU
[Verse] 
 
 e|-x-------x---------x------------------|
 B|-3-------3---------3------------------|
 G|-0-------0---------0------------------|
 D|-0-------0---------0h2----------------|
 A|-0h2-----0h2-------0h2----------------|
 E|-3-------3---------0------------------|

[G]D UUD UUD UUD UDU [Em7]D UUD UUD UUD UDU
 
 e|-x---------x---------x---x---x---x--------|
 B|-1---------3---------3---3---3---3--------|
 G|-0---------0---------2h4-4p2-2p0-0--------|
 D|-0h2-------0h2-------0---0---0---0h2------|
 A|-3---------3---------x---x---x---x--------|
 E|---------------------3---3---3---3--------|

[C]D UUD UUD UUD UDU [G]D UUD UUD UU[G]D UDU
 
 e|-x-------x---------x------------------|
 B|-3-------3---------3------------------|
 G|-0-------0---------0------------------|
 D|-0-------0---------0h2----------------|
 A|-0h2-----0h2-------0h2----------------|
 E|-3-------3---------0------------------|

[G]D UUD UUD UUD UDU [Em7]D UUD UUD UUD UDU
 
 e|-x---------x---------x---x---x---x--------|
 B|-1---------3---------3---3---3---3--------|
 G|-0---------0---------2h4-4p2-2p0-0--------|
 D|-0h2-------0h2-------0---0---0---0h2------|
 A|-3---------3---------x---x---x---x--------|
 E|---------------------3---3---3---3--------|

[C]D UUD UUD UUD UDU [G]D UUD UUD UU[G]D UDU
[Cborus] 
 
 e|-x---x-x---x---x-----x---x-x---x---------|
 B|-3---3-3---3---3-----3---3-3---3---------|
 G|-2h4-4-4p2-2p0-0-----2h4-4-4p2-0---------|
 D|-0---0-0---0---0h2---2---2-2---2---------|
 A|-x---x-x---x---x-----2---2-2---2---------|
 E|-3---3-3---3---3-----0---0-0---0---------|

[G]D UUD UUD UUD UDU [Em7]D UUD UUD UUD UDU
 
 e|-x---------x---------x---x---x---x--------|
 B|-1---------3---------3---3---3---3--------|
 G|-0---------0---------2h4-4p2-2p0-0--------|
 D|-0h2-------0h2-------0---0---0---0h2------|
 A|-3---------3---------x---x---x---x--------|
 E|---------------------3---3---3---3--------|

[C]D UUD UUD UUD UDU [G]D UUD UUD UU[G]D UDU
 
 e|-x---x-x---x---x-----x---x-x---x---------|
 B|-3---3-3---3---3-----3---3-3---3---------|
 G|-2h4-4-4p2-2p0-0-----2h4-4-4p2-0---------|
 D|-0---0-0---0---0h2---2---2-2---2---------|
 A|-x---x-x---x---x-----2---2-2---2---------|
 E|-3---3-3---3---3-----0---0-0---0---------|

[G]D UUD UUD UUD UDU [Em7]D UUD UUD UUD UDU
 
 e|-x---------x---------x---x---x---x--------|
 B|-1---------3---------3---3---3---3--------|
 G|-0---------0---------2h4-4p2-2p0-0--------|
 D|-0h2-------0h2-------0---0---0---0h2------|
 A|-3---------3---------x---x---x---x--------|
 E|---------------------3---3---3---3--------|

[C]D UUD UUD UUD UDU [G]D UUD UUD UU[G]D UDU
[Verse] 
 
 e|-x-------x---------x------------------|
 B|-3-------3---------3------------------|
 G|-0-------0---------0------------------|
 D|-0-------0---------0h2----------------|
 A|-0h2-----0h2-------0h2----------------|
 E|-3-------3---------0------------------|

[G]D UUD UUD UUD UDU [Em7]D UUD UUD UUD UDU
 
 e|-x---------x---------x---x---x---x--------|
 B|-1---------3---------3---3---3---3--------|
 G|-0---------0---------2h4-4p2-2p0-0--------|
 D|-0h2-------0h2-------0---0---0---0h2------|
 A|-3---------3---------x---x---x---x--------|
 E|---------------------3---3---3---3--------|

[C]D UUD UUD UUD UDU [G]D UUD UUD UU[G]D UDU
 
 e|-x-------x---------x------------------|
 B|-3-------3---------3------------------|
 G|-0-------0---------0------------------|
 D|-0-------0---------0h2----------------|
 A|-0h2-----0h2-------0h2----------------|
 E|-3-------3---------0------------------|

[G]D UUD UUD UUD UDU [Em7]D UUD UUD UUD UDU
 
 e|-x---------x---------x---x---x---x--------|
 B|-1---------3---------3---3---3---3--------|
 G|-0---------0---------2h4-4p2-2p0-0--------|
 D|-0h2-------0h2-------0---0---0---0h2------|
 A|-3---------3---------x---x---x---x--------|
 E|---------------------3---3---3---3--------|

[C]D UUD UUD UUD UDU [G]D UUD UUD UU[G]D UDU
[Cborus] 
 
 e|-x---x-x---x---x-----x---x-x---x---------|
 B|-3---3-3---3---3-----3---3-3---3---------|
 G|-2h4-4-4p2-2p0-0-----2h4-4-4p2-0---------|
 D|-0---0-0---0---0h2---2---2-2---2---------|
 A|-x---x-x---x---x-----2---2-2---2---------|
 E|-3---3-3---3---3-----0---0-0---0---------|

[G]D UUD UUD UUD UDU [Em7]D UUD UUD UUD UDU
 
 e|-x---------x---------x---x---x---x--------|
 B|-1---------3---------3---3---3---3--------|
 G|-0---------0---------2h4-4p2-2p0-0--------|
 D|-0h2-------0h2-------0---0---0---0h2------|
 A|-3---------3---------x---x---x---x--------|
 E|---------------------3---3---3---3--------|

[C]D UUD UUD UUD UDU [G]D UUD UUD UU[G]D UDU
 
 e|-x---x-x---x---x-----x---x-x---x---------|
 B|-3---3-3---3---3-----3---3-3---3---------|
 G|-2h4-4-4p2-2p0-0-----2h4-4-4p2-0---------|
 D|-0---0-0---0---0h2---2---2-2---2---------|
 A|-x---x-x---x---x-----2---2-2---2---------|
 E|-3---3-3---3---3-----0---0-0---0---------|

[G]D UUD UUD UUD UDU [Em7]D UUD UUD UUD UDU
 
 e|-x---------x---------x---x---x---x--------|
 B|-1---------3---------3---3---3---3--------|
 G|-0---------0---------2h4-4p2-2p0-0--------|
 D|-0h2-------0h2-------0---0---0---0h2------|
 A|-3---------3---------x---x---x---x--------|
 E|---------------------3---3---3---3--------|

[C]D UUD UUD UUD UDU [G]D UUD UUD UU[G]D UDU
 
 e|-x---x-x---x---x-----x---x-x---x---------|
 B|-3---3-3---3---3-----3---3-3---3---------|
 G|-2h4-4-4p2-2p0-0-----2h4-4-4p2-0---------|
 D|-0---0-0---0---0h2---2---2-2---2---------|
 A|-x---x-x---x---x-----2---2-2---2---------|
 E|-3---3-3---3---3-----0---0-0---0---------|

[G]D UUD UUD UUD UDU [Em7]D UUD UUD UUD UDU
 
 e|-x---------x---------x---x---x---x--------|
 B|-1---------3---------3---3---3---3--------|
 G|-0---------0---------2h4-4p2-2p0-0--------|
 D|-0h2-------0h2-------0---0---0---0h2------|
 A|-3---------3---------x---x---x---x--------|
 E|---------------------3---3---3---3--------|

[C]D UUD UUD UUD UDU [G]D UUD UUD UU[G]D UDU
 
 e|-x---x-x---x---x-----x---x-x---x---------|
 B|-3---3-3---3---3-----3---3-3---3---------|
 G|-2h4-4-4p2-2p0-0-----2h4-4-4p2-0---------|
 D|-0---0-0---0---0h2---2---2-2---2---------|
 A|-x---x-x---x---x-----2---2-2---2---------|
 E|-3---3-3---3---3-----0---0-0---0---------|

[G]D UUD UUD UUD UDU [Em7]D UUD UUD UUD UDU
 
 e|-x---------x---------x---x---x---x--------|
 B|-1---------3---------3---3---3---3--------|
 G|-0---------0---------2h4-4p2-2p0-0--------|
 D|-0h2-------0h2-------0---0---0---0h2------|
 A|-3---------3---------x---x---x---x--------|
 E|---------------------3---3---3---3--------|

[C]D UUD UUD UUD UDU [G]D UUD UUD UU[G]D UDU
[Verse] 
 
 e|-x-------x---------x------------------|
 B|-3-------3---------3------------------|
 G|-0-------0---------0------------------|
 D|-0-------0---------0h2----------------|
 A|-0h2-----0h2-------0h2----------------|
 E|-3-------3---------0------------------|

[G]D UUD UUD UUD UDU [Em7]D UUD UUD UUD UDU
 
 e|-x---------x---------x---x---x---x--------|
 B|-1---------3---------3---3---3---3--------|
 G|-0---------0---------2h4-4p2-2p0-0--------|
 D|-0h2-------0h2-------0---0---0---0h2------|
 A|-3---------3---------x---x---x---x--------|
 E|---------------------3---3---3---3--------|

[C]D UUD UUD UUD UDU [G]D UUD UUD UU[G]D UDU
 
 e|-x-------x---------x------------------|
 B|-3-------3---------3------------------|
 G|-0-------0---------0------------------|
 D|-0-------0---------0h2----------------|
 A|-0h2-----0h2-------0h2----------------|
 E|-3-------3---------0------------------|

[G]D UUD UUD UUD UDU [Em7]D UUD UUD UUD UDU
 
 e|-x---------x---------x---x---x---x------x-|
 B|-1---------3---------3---3---3---3------3-|
 G|-0---------0---------2h4-4p2-2p0-0------0-|
 D|-0h2-------0h2-------0---0---0---0h2----0-|
 A|-3---------3---------x---x---x---x------2-|
 E|---------------------3---3---3---3------3-|

[C]D UUD UUD UUD UDU [G]D UUD UUD UU[G]D UDU D

Important: The song above is NOT stored on the Chordie server. The original song is hosted at www.azchords.com. Chordie works as a search engine and provides on-the-fly formatting. Chordie does not index songs against artists'/composers' will. To remove this song please click here.

Text color:
Chord color:
Chord grids: 
Font size:    
Page size: 

C Em7 G
Rate #1 of 2 versions

Login - add to songbook

SHARE PAGE  



You need to log in to post comments