Guitar Tabs, Chords and Lyrics
Major upgrade!! After one year development the new version of Chordie is now online! Please give feedback.


The One That Got Away  Tim McGraw

**Capo 4th Fret*
ALL CHORDS RELATIVE TO CAPO
Asus2/F#:202200
Asus2(open E):002200
F#*:x540200
A/B:x22220
Asus2:x02200
E:022100
D:xx0232
Intro Lead:
 
 E------7-9--------9h10p9-7-------------7-9--------9h10p9-7------------7-9b*
 B-7-10-------7-10----------10----7-10-------7-10----------10-----7-10-----

*bend[##]

Intro Rhythm:
 
 E------------------------------------------------------
 B----0------0-------0---------0-------------------------
 G---2-2----2-2--------2---------2----------------------
 D------2-------2---4----4---4-----4-----(x2)-----------
 A----------------5--------5----------------------------
 E-2------0---------------------------------------------

Verses:
 
 E--------------------------------------------------------------------------------------------------
 B-----0---------0---------0---------0----------0----------0----------2-0---------2-0---------------
 G---2---2-----2---2-----2---2-----2---2----------2----------2------2-----2-----2-----2-------------
 D---------2---------2---------2---------2----4-----4----4-----4------------2-----------2----(x2)---
 A------------------------------------------5----------5----------2-----------2---------------------
 E-2---------2---------0---------0------------------------------------------------------------------

Asus2/F# Asus2(open E) F#* A/B
Verse 1:*(tab above)
You got your [Asus2/F#]head in your supper
And the eyes of your mother, baby
Asus2(open E)
Locked on you
F#* A/B
Everybody wants a piece of you, oh yeah
And your [Asus2/F#]phone keeps ringing
Asus2(open E)
Cause your cousin's singing at the local bar
F#*
Everybody wants to be a star
Just like [A/B]you are
Pre-chorus:
[D]You kept your face in the gutter for [E]years
[E]Kept your eyes on the road
[D] You always felt you were meant for [E]more
[E]Baby now you know
Chorus:
[Asus2]Everybody wants a [E]glimpse of the one that [D]got away
Everybody wants to [Asus2]see you
And [E]everybody wants to [D]be you too
It's [Asus2]funny how they put you [E]down
But now they think you're [D]alright
And everybody loves you [Asus2]now that
You're the [E]one that got [D]away
Intro
(the one that got away)
Verse 2:(same as verse 1)
See you were [Asus2/F#]raised in the town
Asus2(open E)
Where the kids hang around the Pizza Hut parking lot
F#* A/B
Everybody talks a lot, no one likes to do, no
And all the [Asus2/F#]Cub Scout leaders at the local theaters
Asus2(open E)
Said you couldn't sing a song that well
F#*
You told 'em all to go to hell
And went out on your [A/B]own
Pre-chorus 2:
[D]You got a headshot picture to[E]
[E]Sell yourself to the world
[D] You tucked your scars up under your [E]dress
Like an american girl
Chorus:
[Asus2]Everybody wants a [E]glimpse of the one that [D]got away
Everybody wants to [Asus2]see you
And [E]everybody wants to [D]be you too
It's [Asus2]funny how they put you [E]down
But now they think you're [D]alright
And everybody loves you [Asus2]tonight
You're the [E]one that got [D]away
(yeah,yeah,yeah)
Instrumental Break:
F#m,Asus2,D
F#m,Asus2,D,B
Chorus:
No Chord
And Everybody wants a glimpse of the one that got away
Everybody wants to see you
And they all want to be you
It's [Asus2]funny how they put you [E]down
But now they think you're [D]all that
And everybody loves you [Asus2]now that
You're the [E]one that got [D]away
[Asus2]Everybody wants a [E]glimpse of the one that [D]got away
Everybody wants to [Asus2]see you
And [E]all the girls wanna [D]be you too
It's [Asus2]funny how they put you [E]down
But now they think you're [D]alright
And everybody loves you [Asus2]now that
You're the [E]one that got [D]away
Play the Intro Lead and Rhythm out

Important: The song above is NOT stored on the Chordie server. The original song is hosted at www.azchords.com. Chordie works as a search engine and provides on-the-fly formatting. Chordie does not index songs against artists'/composers' will. To remove this song please click here.

Text color:
Chord color:
Chord grids: 
Font size:    
Page size: 

A/B Asus2 Asus2/F# D E
Rate #1 of 1 versions

Login - add to songbook

SHARE PAGE  




You need to log in to post comments