Guitar Tabs, Chords and Lyrics
Update 25:10. 13:00. Site is back up running again. Songbooks are recovered. Woring on getting search back up..


Use Me  Tina Dickow

Tina Dickow
Tuning: E A D G B E (standard)
Voicing:
Intro:
[A7] [Gadd9]  
 
 e----0--------------------------|
 b----2--3--2--0---------0-------|
 g----0-----------2------2-------| 2 times
 d---2-----------------0-0-------|
 a--0----------------------------|
 e--------------------3----------|

Verse:
[A7] [Gadd9]  
 
 e----0-(0)-(0)-(0)-------------------|
 b----2--3---2---0----------0-----0---|
 g----0-------------2-------2-----2---| 3 times
 d---2------------------0-0----0-0----|
 a--0---------------------------------|
 e---------------------3------3-------|

[D] [Bm6]  
 
 e------2------2-------2-------2------|
 b--------3------3-------3-------3----|
 g----2------2-------1-------1--------|
 d---0------0-------------------------|
 a------------------2------2----------|
 e------------------------------------|

[G] [A7]  
 
 e------------------------------------|
 b-----0------0------2--3---2---0-----|
 g-----2------2------0-(0)-(0)-(0)-2--| 2 times
 d---0-0----0-0----2------------------|
 a----------------0-------------------|
 e--3-----3---------------------------|

Em Bm A/c#
 
 e-----0-----0-------2----------------|
 b-----0-----0-------3-------2--------|
 g-----0-----0-------4-------2--------|
 d-----2-----2-----4------2--2--------|
 a---2-----2-----2------4-------------|
 e--0-----0---------------------------|

Chorus:
G Em Bm A/c#
 
 e---3-----3-----2--------------------|
 b---3-----3-----3-----2--------------|
 g---0-----0-----4-----2--------------| 2 times
 d---0-----2-----4-----2--------------|
 a---2-----2-----2-----4--------------|
 e---3-----0--------------------------|

[G] [Em] [Bm] [A] [G] [G] [A]  
 
 e---3-----3-----2----0---3---3-------|
 b---3-----3-----3----2---3---3---2---|
 g---0-----0-----4----2---0---0---2---|
 d---0-----2-----4----2---0---0---2---|
 a---2-----2-----2----0---2---2---0---|
 e---3-----0--------------3---3-------|

Bridge:
[G] [Em] [Bm] [A]  
 
 e---3-----3-----2----0----|
 b---3-----3-----3----2----|
 g---0-----0-----4----2----|
 d---0-----2-----4----2----|
 a---2-----2-----2----0----|
 e---3-----0---------------|

[G] [Em] [A]  
 
 e---3-----3-----0-----|
 b---3-----3-----2-----|
 g---0-----0-----2-----|
 d---0-----2-----2-----|
 a---2-----2-----0-----|
 e---3-----0-----------|

[G] [Em] [C#dim] [F#7]  
 
 e---3-----3------------2---|
 b---3-----3-----5------2---|
 g---0-----0-----4------3---|
 d---0-----2-----5------2---|
 a---2-----2-----4------4---|
 e---3-----0------------2---|

[G] [Em] [Bm]  
 
 e---3-----3-----2----------|
 b---3-----3-----3----------|
 g---0-----0-----4----------|
 d---0-----2-----4----------|
 a---2-----2-----2----------|
 e---3-----0----------------|

USE ME
Tina Dickow
1. verse:
[A7] So you‚??ve messed i[G]t up
[A7] Don‚??t know when to[G] stop
[A7]Said more than [G]enough[D7] [Bm6]
[G]I‚??ve touched you where i[A7]t hurts
[G]And I know I‚??m not th[A7]e first
Em Bm A/c#
But please don‚??t make it worse
Chorus:
G Em Bm A/c#
Don‚??t be so hard on yourself
G Em Bm A/c#
Take it out on someone else
Say my [G]name [Em]anyway you [Bm]please[A]
[G]Use me[A]
2. verse: (only 2nd part)
Look me in the eye
I‚??d love to see you smile
And I know how hard you try
Chorus:
Don‚??t be so hard on yourself
Take it out on someone else
Say my name anyway you please
Bridge:
[G]In the [Em]morning
[Bm]You‚??ll see [A]a different side
[G]In the [Em]morning
[A]A softer light
[G]In the [Em]morning
[C#dim]It will [F#7]all look [G]right
And [Em]you won‚??t have t[Bm]o hide
Chorus:
Don‚??t be so hard on yourself
Take it out on someone else
Say my name anyway you please
Don‚??t be so hard on yourself
Take it out on someone else
Say my name anyway you please
Use me

Important: The song above is NOT stored on the Chordie server. The original song is hosted at www.azchords.com. Chordie works as a search engine and provides on-the-fly formatting. Chordie does not index songs against artists'/composers' will. To remove this song please click here.

Text color:
Chord color:
Chord grids: 
Font size:    
Page size: 

A A7 Bm Bm6 C#dim D D7 Em F#7 G Gadd9
Rate #2 of 2 versions

Jango Player

Login - add to songbook

SHARE PAGE  



You need to log in to post comments