Guitar Tabs, Chords and Lyrics
Server problems seems to be fixed. Chordie has been experiencing problems with songs disappearing. These issues now seems to be fixed, but still verifying the fix. If you find anything strange, please email admin@chordie.com.


Algae Bloom  Told Slant

Riff 1:
 
 e|---------------------------------------------------------------------------|
 B|--------0-------------0----------------------------------------------------|
 G|------0---0---0-----0---0---0----------------------------------------------|
 D|------------0-------------0------------------------------------------------|
 A|--2h3----------------------------------------------------------------------|
 E|----------------2h3--------------------------------------------------------|

Riff 2:
 
 e|---------------------------------------------------------------------------|
 B|---------------------------------------------------------------------------|
 G|----0---0---0---0---0---0--------------------------------------------------| Not the exact amount
 D|---------------------------------------------------------------------------|
 A|--2---2---2---3---3---3----------------------------------------------------|
 E|---------------------------------------------------------------------------|

Riff 3:
 
 e|---------------------------------------------------------------------------|
 B|---------------------------------------------------------------------------|
 G|--------0h4-4-4-0---0-------0h4-4-4-0---0----------------------------------|
 D|------------------4-------------------4------------------------------------|
 A|--2h3-3--------------------------------------------------------------------|
 E|----------------------2h3-3------------------------------------------------|

[C]Static state go away [G]go away
I want to f[C]eel a little conscious by the [G]end of the day
I tend to f[C]eel a little nauseous when you're s[G]lipping away
Riff 1
Riff 1
Some things we talked about
It's hard to talk about you right now
You look like algae bloom when you're down
Riff 1
Down down down
Riff 1
We used to walk around
Now I walk without you around
That's hard to talk about
C (G) C first and third time G second and fourth time
Still water
Riff 1
I want to shout like a thundercloud
Yell my lungs right out of my mouth
You look like algae bloom when you're down
Riff 1
Down down down
C (G) C first and third time G second and fourth time
Still water
Riff 2 Studio version plays regular chords just like verse 1
[C]The woman on my voicemail machine
[G]Doesn't have a lot to say[C]
Because you don't have a lot to s[G]ay to me today
[C]Today feels a lot like yesterda[G]y
Riff 3
[C]Static state go away [G]go away
I want to f[C]eel a little conscious by the [G]end of the day
Riff 3

Important: The song above is NOT stored on the Chordie server. The original song is hosted at www.azchords.com. Chordie works as a search engine and provides on-the-fly formatting. Chordie does not index songs against artists'/composers' will. To remove this song please click here.

Text color:
Chord color:
Chord grids: 
Font size:    
Page size: 

C G
Rate #1 of 1 versions

Jango Player

Login - add to songbook

SHARE PAGE  




You need to log in to post comments