Guitar Tabs, Chords and Lyrics
Update 25:10. 13:00. Site is back up running again. Songbooks are recovered. Woring on getting search back up..


Det här har aldrig hänt  Tomas Ledin

Riff 1
 
 E||--------------------------|---------------------------|
 B||--------8--------------8--|---------------------------|
 G||--------9--------------9--|--L------------------------|
 D||--------9--------------9--|--L------------------------|
 A||--------7-----5~-------7--|--L------------------------|
 E||--0--0--0--0--0-----0-----|-----0--/5-----5~----3--0--|
 --------------------------|------------3--------L--||
 --------8--------------8--|------------3--------L--||
 --------9--------------9--|--L---------0--------L--||
 --------9--------------9--|--L---------0--------L--||
 --------7-----5~-------7--|--L---------x--------L--||
 -----0--0--0--0-----0-----|-----0--0--/3--------L--||

Riff 2
 
 E||--------------------------|---------------------------|
 B||--------------------------|---------------------------|
 G||--------------------------|---------------------------|
 D||--------5--------------5--|--L------------------------|
 A||--------7-----5~-------7--|--L------------------------|
 E||--0--0-----0--0-----0-----|-----0--/5-----5~----3--0--|
 --------------------------|------------------------||
 --------------------------|------------------------||
 --------------------------|--L---------------------||
 --------5--------------5--|--L---------------------||
 --------7-----5~-------7--|--L---------------------||
 -----0-----0--0-----0-----|-----0--0--/3b--------L-||

Riff 3
 
 E||--------------------------|---------------------------|
 B||--------------------------|---------------------------|
 G||--------------------------|---------------------------|
 D||--------5--------------5--|--L------------------------|
 A||--------7-----5~-------7--|--L------------------------|
 E||--0--0-----0--0-----0-----|-----0--/5-----5~----3--0--|
 E||--------------------------|---------------------------|
 B||--------------------------|---------------------------|
 G||--------------------------|---------------------------|
 D||--------5--------------5--|--L------------------------|
 A||--------7-----5~-------7--|--L------------------------|
 E||--0--0-----0--0-----0-----|-----0--/5-----5~----3--0--|

Riff 4
 
 E||--------------------------|----------------------||
 B||--------------------------|----------------------||
 G||--------------------------|----------------------||
 D||--------5--------------5--|--L-----7------7------||
 A||--------7-----5~-------7--|--L-----5------5------||
 E||--0--0-----0--0-----0-----|-----0----------------||

Intro
Riff 1
Verse 1
[A]Hur har vi hamnat här egentligen?
[A]Hur kommer det sig att jag sitter här på sä[G]ngkanten?
Riff 2
Verse 2
[A]Vad har vi haft för oss, gjort du och jag ?
[A]Det här är hotell rummet kan knappast vara bokat idag
Riff 3
Chorus
En [D]sak är säker[C] [B] [A]
[D] Det vet vi båda [C]tv[B][A]
[D]Vad som än sägs[C], vad so[B]m hän[A]der
[D] Så är det bara [C]s[B][A]
Riff 2
Verse 3
[A]Mitt skjorta på golvet, vill inte förstå
[A]Finns det någon förklaring som kanske kan r[G]dda mig?
Riff 2
Verse 4
Jag måste ta en dusch, vakna till liv
Kavajen är borta, var är nycklarna till m[G]in bil?
Riff 3
Chorus
En [D]sak är säker[C] [B] [A]
[D] Det vet vi båda [C]tv[B][A]
[D]Vad som än sägs[C], vad so[B]m hän[A]der
[D] Så är det bara [C]s[B][A]
Solo
Riff 2
A |A |A |A
Riff 3
A |A |A |A
Riff 3
Chorus
En [D]sak är säker[C] [B] [A]
[D] Det vet vi båda [C]tv[B][A]
[D]Vad som än sägs[C], vad so[B]m hän[A]der
[D] Så är det bara [C]s[B][A]
Det här har aldrig hänt
Chorus 2
[A]Aldrig[C] h[D]nt - Det här har aldri[E]g hänt
Aldrig hänt - Det här har[G] aldrig hänt
[A]Aldrig[C] h[D]nt - Det här har aldri[E]g hänt
Aldrig hänt - Det här har[G] aldrig hänt
[A]Aldrig[C] h[D]nt - Det här har aldri[E]g hänt
Aldrig hänt - Det här har[G] aldrig hänt
[A]Aldrig[C] h[D]nt - Det här har aldri[E]g hänt
Riff 4 x 4

Important: The song above is NOT stored on the Chordie server. The original song is hosted at www.azchords.com. Chordie works as a search engine and provides on-the-fly formatting. Chordie does not index songs against artists'/composers' will. To remove this song please click here.

Text color:
Chord color:
Chord grids: 
Font size:    
Page size: 

A B C D E G
Rate #1 of 1 versions

Login - add to songbook

SHARE PAGE  



You need to log in to post comments