Guitar Tabs, Chords and Lyrics
Server problems seems to be fixed. Chordie has been experiencing problems with songs disappearing. These issues now seems to be fixed, but still verifying the fix. If you find anything strange, please email admin@chordie.com.


All the Wrong Reasons  Tom Petty and the Heartbreakers

With Added lyrics+Chords and Tab work by Wojsterman
Song Title: All The Wrong Reasons
album "Into The Great Wide open"
Chords used:
capo 3rd fret
[D] [G] [A]  
[D] [G] [A] [D]  
 
 |--3-3-5-6-8-6---6-6--6---3---3--3----5---5-5-----|
 |--6-6-------6---6-6--6---6---5--6----6---6-6--6--|
 |--5-5-------3---3-3--3---5---5--5----5---5-5--5--|
 |--3-3-------3---3-3--3---5---5--5----3---3-3--3--|
 |-------------------------------------------------|
 |--x----------------------------------------------|

[D] [G] [A] [D]  
 
 |--3-3-5-6-8-6---6-6--6---3---3-3-3---5---5-------|
 |--6-6-------6---6-6--6---5---5-5-5---6---6---6---|
 |--5-5-------3---3-3--3---5---5-5-5---5---5---5---|
 |--3-3-------3---3-3--3---5---5-5-5---3---3---3---|
 |-------------------------------------------------|
 |--x----------------------------------------------|

Intro:
[D] [G] [A] [D] [D] [G] [A] [D] [D] [G] [A] [D] [D] [G] [A] [D] 
T[D]rouble blew [G]in on a [A]cold dark [D]wind
It [D]came with[G]out no [A]warnn[D]in
And that [D]big ol' [G]house went [A]up for [D]sale
They were [D]on the [G]road by [A]morni[D]ng
[D]Woh ah oh [G]ho The [A]days went [D]slow [D]into the [G]changing [A]sea-[D]son
[D]Woh ah oh [G]ho, Out [A]in the [D]cold for [D]all the [G]wrong [A]rea-[D]sons
Well [D]she grew up [G]hard, and [A]she grew up [D]fast
[D] [G] [A] [D]  
 
 In the age of tel--e-vi----sion

And [D]she made a [G]vow to [A]have it [D]all
[D] [G] [A] [D]  
 
 It became her new re--li----gion

[D]Woh ah oh [G]ho, [A]Down in her [D]soul, it [D]was an [G]act of [A]trea-[D]son
[D]Woh ah oh [G]ho, [A]Down they [D]go, for [D]all the [G]wrong [A]rea-[D]sons
(4 bar intro - then light)
Where the [D]sky be[G]gins the ho[A]rizon [D]ends
De[D]spite the[G] best in[A]ten--[D]tions
And a [D]big old [G]man [A]goes up for [D]sale
He be[D]comes his [G]own in-[A]ven--[D]tion
Woh [D]ah oh [G]ho, The [A]days go [D]slow, [D]into the [G]changing [A]sea-[D]son
Woh [D]ah oh [G]ho, [A]Bought and [D]sold for [D]all the [G]wrong [A]rea-[D]sons
[D]Woh ah oh [G]ho, [A]Down they [D]go for [D]all the [G]wrong [A]rea-[D]sons

Important: The song above is NOT stored on the Chordie server. The original song is hosted at www.azchords.com. Chordie works as a search engine and provides on-the-fly formatting. Chordie does not index songs against artists'/composers' will. To remove this song please click here.

Text color:
Chord color:
Chord grids: 
Font size:    
Page size: 

A D G
Rate #1 of 2 versions

Login - add to songbook

SHARE PAGE  




You need to log in to post comments