Guitar Tabs, Chords and Lyrics
Server problems seems to be fixed. Chordie has been experiencing problems with songs disappearing. These issues now seems to be fixed, but still verifying the fix. If you find anything strange, please email admin@chordie.com.


Breakdown  Tom Petty and the Heartbreakers

[intro] 
 
 e|---8-----------------------------------------------
 B|-------10p8---8-10-10p8----------------------------
 G|------------9--------------------------------------
 D|---------------------------------------------------
 A|---------------------------------------------------
 E|---------------------------------------------------

[A5] [G5] [A5] [G5] [A5] [G5]  
 
 e|--------------------------------5-------5-5------------------------------------5----5--5-------------------
 B|---8g10/8/10--------------------5----8----5--8----8g10/8/10--------------------5--8----5--8---8p5----------
 G|-------------9---9/7/9------------------------------------9---9/7/9--------------------------------8-------
 D|-----------------------7/5/7----------------------------------------7/5/7----------------------------------
 A|-----------------------------7--------------------------------------------7--------------------------------
 E|-----------------------------------------------------------------------------------------------------------

[verse] 
[A5]it's alr[G5]ight if you [A5]love me[G5]
[A5]it's alr[G5]ight if you [A5]don't[G5]
[A5]I'm not af[G5]raid of you [A5]running aw[G5]ay honey
[A5]I get the [G5]feeling you [F]wo[F6]n't[Fmaj7] [F6]
[verse] 
[A5]Ther's no [G5]sense in [A5]pretending[G5]
[A5]your eyes [G5]give you [A5]away[G5]
[A5]something in[G5]side you is [A5]feeling like [G5]I do
[A5]we've said [G5]there all is to [F]sa[F6]y [Fmaj7] [F6] Baby
[cborus] 
[A5] Break[G5]down go [F5]ahead and [G5]give it to me
[A5] break[G5]down honey [F5]take me [G5]through the night
[A5] Break[G5]down now I'm [F5]standin' here [G5]can't you see
[A5] break[G5]down it's alr[F]ig[F6]ht,[Fmaj7] [F6] its al[F]ri[F6]ght[Fmaj7] [F6]
[intro] 
[A5] [G5] [A5] [G5] [A5] [G5]  
 
 e|---------------------------------------------------------------------------------3--5-5-5-5-5-5-5-5-5-5----
 B|---8g10/8/10----------------------------------------10/8/10--------------------3----5-5-5-5-5-5-5-5-5-5----
 G|-------------9---9/7/9------------------------------------9---9/7/9----------------------------------------
 D|-----------------------7/5/7-----------7--9-9--7------------------------7/5/7------------------------------
 A|-----------------------------7---7--9-------------9--------------------------7-----------------------------
 E|-----------------------------------------------------------------------------------------------------------
 e|-------5---------0---------0-----0------12-----
 B|-5--8-----8--10-----10--13----13---13---13-----
 G|-----------------------------------------------
 D|-----------------------------------------------
 A|-----------------------------------------------
 E|-----------------------------------------------

[cborus] 
[A5] Break[G5]down go [F5]ahead and [G5]give it to me
[A5] break[G5]down honey [F5]take me [G5]through the night
[A5] Break[G5]down now I'm [F5]standin' here [G5]can't you see
[A5] break[G5]down it's alr[F]ig[F6]ht,[Fmaj7] [F6] its al[F]ri[F6]ght[Fmaj7] [F6]
[cborus] 
[A5] Break[G5]down go [F5]ahead and [G5]give it to me
[A5] break[G5]down honey [F5]take me [G5]through the night
[A5] Break[G5]down now I'm [F5]standin' here [G5]can't you see
[A5] break[G5]down it's alr[F]ig[F6]ht,[Fmaj7] [F6] its al[F]ri[F6]ght[Fmaj7] [F6]
 
 e|--------------------------------
 B|---8g10/8/10--------------------
 G|-------------9---9/7/9----------
 D|-----------------------7/5/7----
 A|-----------------------------7--
 E|--------------------------------


Important: The song above is NOT stored on the Chordie server. The original song is hosted at www.azchords.com. Chordie works as a search engine and provides on-the-fly formatting. Chordie does not index songs against artists'/composers' will. To remove this song please click here.

Text color:
Chord color:
Chord grids: 
Font size:    
Page size: 

A5 F F5 F6 Fmaj7 G5
Rate #1 of 8 versions

Jango Player

Login - add to songbook

SHARE PAGE  



You need to log in to post comments