Guitar Tabs, Chords and Lyrics
Major upgrade!! After one year development the new version of Chordie is now online! Please give feedback.


Fawn  Tom Waits

[D] [Bm] [D] [F#m]  
 
 e|------------0---|-2--------0------------0---|-2---5---7-------5--------0---|
 B|--------3-------|--------------3----3-------|-------------7--------3-------|
 G|----------------|------2--------------------|------------------------------|
 D|----------------|-0-----------------4-------|-0-------7------------4-------|
 A|----------------|--------------2------------|------------------------------|
 E|----------------|---------------------------|-----------------2------------|

[D] [Bm] [F#m] [Em] [A7]  
 
 e|-2---5---10--7---5------------|-2---0---0--------------------------0--|
 B|----------------------7---10--|---------------5---------2-------3-----|
 G|------------------------------|------------7-----7--4-------2---------|
 D|-0---------------4------------|---------0-------------------5---------|
 A|------------------------------|---------------------0-----------------|
 E|---------7------------9-------|-0-------------------------------------|

[D] [Bm] [D] [F#m] [Bm] [F#m] [Bm]  
 
 e|-2--------0------------0---|-2---5---7-------5--------5---|-7---5-------2---0---2-----------|
 B|--------------3----3-------|-------------7--------3-------|-------------------------0---3---|
 G|------2--------------------|------------------------------|---------------------------------|
 D|-0-----------------4-------|-0--------------------4-------|---------0---------------0-------|
 A|--------------2------------|---------0--------------------|---------------------------------|
 E|---------------------------|-----------------2------------|-7---------------2---------------|

[E] [A7] [D] [Bm] [F#m]  
 
 e|-0------------------------0---|-2---3---5-------10----7----|-5------------------------2---|
 B|-----3-------2---3----3-------|----------------------------|----------------------3-------|
 G|-------------0----------------|-------------7--------------|---------2--------------------|
 D|-----0-----------4----2-------|-0---------------------4----|-------------4----------------|
 A|---------0--------------------|---------0------------------|-----4----------------0-------|
 E|-0----------------------------|-----------------7----------|-2---------------2------------|

[Em] [A7sus4] [A7] [Dsus4] [D]  
 
 e|-0-------2---0---------------------|---------------|-10-----10-----|
 B|-----3-----------3-------2---3--2--|-3-------------|-7------7------|
 G|-----------------------------------|-2-------2-----|-7------7------|
 D|-----------------------------------|-2-------------|--------0------|
 A|-----------------0-----------------|-----2---------|-9-------------|
 E|-0-------3-----------3---2---3-----|-3-------------|---------------| 


Important: The song above is NOT stored on the Chordie server. The original song is hosted at www.azchords.com. Chordie works as a search engine and provides on-the-fly formatting. Chordie does not index songs against artists'/composers' will. To remove this song please click here.

Text color:
Chord color:
Chord grids: 
Font size:    
Page size: 

A7 A7sus4 Bm D Dsus4 E Em F#m
Rate #1 of 1 versions

Jango Player

Login - add to songbook

SHARE PAGE  



You need to log in to post comments