Guitar Tabs, Chords and Lyrics
Major upgrade!! After one year development the new version of Chordie is now online! Please give feedback.


Wrong Side of the Road  Tom Waits

[Bm] ΓΆΒ[Bbm]?Β? [Bm]ΓΆΒ?Β? [E9] [Eb9] ΓΆΒ?Β[E9]? ΓΆΒ?Β? ΓΆΒ?Β? ΓΆΒ?Β?
 
 e|--------------2---1----/2------7--6----/7---------------|
 B|--------------3---2----/3------7--6----/7---------------|
 G|--------------4---3----/4------7--6----/7---------------| REPEAT
 D|---------0----4---3----/4------6--5----/6---------------|
 A|-------0---2--2---1----/2------7--6----/7---------------|
 E|-0-1/2--------------------------------------------------|

[G7] [F#7] [G7] [F#7]  
 
 e|--------------------------------------------------------------------------|
 B|-------------3-----3----3-----2----2---2------------3----3--3----222-222--|
 G|-------------4-----4----4-----3----3---3------------4----4--4----333-333--|
 D|-------------3-----3----3-----2----2---2------------3----3--3----222-222--|
 A|------0------5-----5----x-----4---------------------5------------444-444--|
 E|--0-2--2/3---3--3--3----x-----2--2----2------0-2-3--3--3---------222-222--|

| ΓΆΒ?Β? Downstroke
| ΓΆΒ?Β? Upstroke
| / Slide up
| \ Slide down
************************************
Put a [Bm]dea[(Bbm)]d cat [Bm] on the [E9]rai[(Eb9)]lroad [E9]tracks
Where the [Bm]wolf[(Bbm)]-bane'[Bm]s blooming by the [E9]tre[(Eb9)]stle[E9]
and get the [G7]eyeball of a rooster and the [F#7]stones from a ditch
and [G7]wash 'em down with bilge water and [F#7]say you'll never snitch
[Verse] 
Take the [Bm]but[(Bbm)]tons f[Bm]rom a yellow jacket and the [E9]fea[(Eb9)]thers [E9]from a buzzard
and the [Bm]blo[(Bbm)]od fro[Bm]m a bounty hunter's c[E9]old[(Eb9)] black[E9] heart
Catch the [G7]tears of a widow in a [F#7]thimble made of glass
tell your [G7]mama and papa they can [F#7]kiss your ass
[Verse] 
[Bm]Poi[(Bbm)]son al[Bm]l the water in the [E9]wis[(Eb9)]hin' w[E9]ell
and [Bm]han[(Bbm)]g all [Bm]them scarecrows from a [E9]syc[(Eb9)]amore [E9]tree
[G7]Burn down them honeymoons [F#7]put 'em in a pillow case
And [G7]wait next to the switch blades at the a[F#7]musement park for me
[Verse] 
[Bm]Str[(Bbm)]angle [Bm]all the Christmas carols [E9]scr[(Eb9)]atch o[E9]ut all your prayers
[Bm]Tie[(Bbm)] 'em u[Bm]p with barbed wire and [E9]pus[(Eb9)]h them[E9] down the stairs
I'll [G7]whittle you a pistol for keeping [F#7]nightmares of the blinds
Those [G7]sunsab**ches always seem to s[F#7]neak up from behind
[Verse] 
[Bm]Syp[(Bbm)]hon al[Bm]l the gas from your [E9]dad[(Eb9)]dy's p[E9]ickup truck
[Bm]Fil[(Bbm)]l up J[Bm]ohnny's T-Bird I [E9]got[(Eb9)] a cou[E9]ple of bucks
[G7]Put a little perfume and a [F#7]ribbon in your hair
Be [G7]careful that you don't wake up the [F#7]hounds
[Verse] 
[Bm]Tea[(Bbm)]r a bo[Bm]lt of lightning off the [E9]sid[(Eb9)]e of t[E9]he sky
And [Bm]thr[(Bbm)]ow it [Bm]in a cedar chest if you [E9]wan[(Eb9)]t I'll[E9] tell you why
Bring the [G7]gear shift knob from a [F#7]49 Merc
and [G7]lay down here beside me let me [F#7]hold you in the dirt
[Verse] 
[Bm] W[(Bbm)]e're g[Bm]onna tremble tear the [E9]thr[(Eb9)]oat ou[E9]t of the night
Sink your [Bm]tee[(Bbm)]th int[Bm]o my shoulder dig your [E9]nai[(Eb9)]ls int[E9]o my back
Tell that [G7]little girl to let go of my sl[F#7]eeve
You'll be a [G7]woman when I catch you, come, baby, [F#7]fall in love with me
[Verse] 
With my d[Bm]oub[(Bbm)]le bar[Bm]rel shotgun and a [E9]who[(Eb9)]le box[E9] of shells
We'll [Bm]cel[(Bbm)]ebrate[Bm] the [E9]4th[(Eb9)] of Ju[E9]ly
We'll do a [G7]hundred miles per hour spendin' [F#7]someone else's dough
And drive [G7]all the way to Reno on the [F#7]wrong si - de of the road

Important: The song above is NOT stored on the Chordie server. The original song is hosted at www.azchords.com. Chordie works as a search engine and provides on-the-fly formatting. Chordie does not index songs against artists'/composers' will. To remove this song please click here.

Text color:
Chord color:
Chord grids: 
Font size:    
Page size: 

Bbm Bm E9 Eb9 F#7 G7
Rate #1 of 1 versions

Login - add to songbook

SHARE PAGE  



You need to log in to post comments