Guitar Tabs, Chords and Lyrics
Major upgrade!! After one year development the new version of Chordie is now online! Please give feedback.


Yesterday Is Here  Tom Waits

 


Yesterday is Here
Tom Waits: From "Frank's Wild Years"
Transcribed: Jim Harney
If you want m[Am]oney in your po[E]cket
and a [Am]top hat on your h[E]ead
a [Am]hot meal on your [Dmaj7]table and a bl[E]anket on your b[E]ed
-Chorus-well t[Am]oday is grey s[C]kies
to[Dmaj7]morrow is t[Am]ears
yo[F]u'll have to wait till yes[E]terday is h[Am]ere
Well I'm g[Am]oing to New York C[E]ity
and I'm le[Am]aning on a tr[E]ain
and [Am]if you want to [Dmaj7]stay behind and
wait till [E]I come back ag[E]ain
(Chorus)
-Bridge-If [Am]you want to [F]go
w[Am]here the rainbows e[F]nd
you'll h[Am]ave to say go[F]odbye[Am]
all [Am]our dreams come t[F]rue
b[Am]aby up ah[F]ead
and it's [Am]out were your mem[F]ories [E7sus4]lie
well the r[Am]oad is out before [E]me
and the m[Am]oon is shining br[E]ight
what I w[Am]ant you to re[Dmaj7]member
as I dis[E]appear ton[E]ight
(Chorus)
(Chorus)
Intro Lead Played Over one Verse-Chorus set. ( / is slide )
 
 --------------------------------------------------------------------
 --------------------------------------------------------------------
 ---------------------------------------------------7----7-9---------
 -2-2/7-7-9-10-9-7-6-7---7-7-7-9-10-9-7---9-9/10-10---10-------------
 --------------------------------------------------------------------
 --------------------------------------------------------------------
 --------------------------------------------------------------------
 --------------------------------------------------------------------
 --------------------------------------------------------------------
 -9-9-10-9-7----------------7----------------------------------------
 ------------10-9-7---10-10---10-9-10---7-7-7--6-7-9-7---------------
 ------------------------------------------------------7-------------

Chord-ology is as follows... (if you don't know or forget them like me)
[Am] [E] [Dmaj7] [C] [F] [E7sus4]  
 
 --0-----0-------0-------1-------1-------0---------------------------
 --1-----0-------3-------0-------1-------0---------------------------
 --2-----1-------2-------2-------2-------2---------------------------
 --2-----2-------0-------3-------3-------0---------------------------
 --0-----2---------------0-------3-------2---------------------------
 --------0-----------------------1-------0---------------------------


Important: The song above is NOT stored on the Chordie server. The original song is hosted at www.azchords.com. Chordie works as a search engine and provides on-the-fly formatting. Chordie does not index songs against artists'/composers' will. To remove this song please click here.

Text color:
Chord color:
Chord grids: 
Font size:    
Page size: 

Am C Dmaj7 E E7sus4 F
Rate #1 of 6 versions

Login - add to songbook

SHARE PAGE  



You need to log in to post comments