Guitar Tabs, Chords and Lyrics
Major upgrade!! After one year development the new version of Chordie is now online! Please give feedback.


Goodbye Lament  Tony Iommi

 
 -----------------------------------------------------------------------------

Tuning Info: Tune to C#, Andante, 88 beats/min., 4/4 count
Note: Lyrics may not aligh with music and multiple guitar parts may not
align due to space constraints.
Note 2: My Flang is set like this: Manual @ half| depth @ 7| Rate @ 6|
Resolution @ half
notes:
 
 ------------------------------------19~----19~----19~----19~----19~---19~----|
 ---------------------------------------17~----17~----17~----17~----17~---17~-|
 -----------------------------------------------------------------------------|
 -----------------------------------------------------------------------------|
 -----------------------------------------------------------------------------|
 -0~~~~~~~~~~~~~~~~~~~--------------------------------------------------------|

[m] 
 
 ---------------------------------------------------------------------------|
 ---------------------------------------------------------------------------|
 ------9--12--9/15\14----9--12--9/15\14----9--12--9/15\14----9--12--9/15\14-|
 ------x---x--x--x--x----x---x--x--x--x----x---x--x--x--x----x---x--x--x--x-|
 ------7--10--7/13\12----7--10--7/13\12----7--10--7/13\12----7--10--7/13\12-|
 --0-0---------------0-0---------------0-0---------------0-0----------------|
 ---------------------------------------------------------------------------|
 ---------------------------------------------------------------------------|
 ------9--12--9/15\14----9--12--9/15\14----9--12--9/15\14----9--12--9/15\14-|
 ------x---x--x--x--x----x---x--x--x--x----x---x--x--x--x----x---x--x--x--x-|
 ------7--10--7/13\12----7--10--7/13\12----7--10--7/13\12----7--10--7/13\12-|
 --0-0---------------0-0---------------0-0---------------0-0----------------|

Say a prayer for me, in my memory, have a taste another one is through
 
 ---------------------------------------------------------------------------|
 ---------------------------------------------------------------------------|
 ------9--12--9/15\14----9--12--9/15\14----9--12--9/15\14----9--12--9/15\14-|
 ------x---x--x--x--x----x---x--x--x--x----x---x--x--x--x----x---x--x--x--x-|
 ------7--10--7/13\12----7--10--7/13\12----7--10--7/13\12----7--10--7/13\12-|
 --0-0---------------0-0---------------0-0---------------0-0----------------|

Damn this place in me, damn this destiny, I will be the one who cries when you go
[f] 
 
 ---------------------------------------------------------------------------|
 ---------------------------------------------------------------------------|
 ---------------------------------------------------------------------------|
 ---------5~---8p7-----------5~---8p7----------5~---8p7----------5~---8p7---|
 -----5/7----7-----------5/7----7----------5/7----7----------5/7----7-------|
 -0-0---------------0-0----------------0-0---------------0-0----------------|

 
 ---------------------------------------------------------------------------|
 ---------------------------------------------------------------------------|
 ------9--12--9/15\14----9--12--9/15\14----9--12--9/15\14----9--12--9/15\14-|
 ------x---x--x--x--x----x---x--x--x--x----x---x--x--x--x----x---x--x--x--x-|
 ------7--10--7/13\12----7--10--7/13\12----7--10--7/13\12----7--10--7/13\12-|
 --0-0---------------0-0---------------0-0---------------0-0----------------|

 
 ---------------------------------------------------------------------------|
 ---------------------------------------------------------------------------|
 ---------------------------------------------------------------------------|
 ---------5~---8p7-----------5~---8p7----------5~---8p7----------5~---8p7---|
 -----5/7----7-----------5/7----7----------5/7----7----------5/7----7-------|
 -0-0---------------0-0----------------0-0---------------0-0----------------|

 
 ---------------------------------------------------------------------------|
 ---------------------------------------------------------------------------|
 ------9--12--9/15\14----9--12--9/15\14----9--12--9/15\14----9--12--9/15\14-|
 ------x---x--x--x--x----x---x--x--x--x----x---x--x--x--x----x---x--x--x--x-|
 ------7--10--7/13\12----7--10--7/13\12----7--10--7/13\12----7--10--7/13\12-|
 --0-0---------------0-0---------------0-0---------------0-0----------------|

Hello misery, you're the best of me, hey, someone got the best of you
 
 ---------------------------------------------------------------------------|
 ---------------------------------------------------------------------------|
 ---------------------------------------------------------------------------|
 ---------5~---8p7-----------5~---8p7----------5~---8p7----------5~---8p7---|
 -----5/7----7-----------5/7----7----------5/7----7----------5/7----7-------|
 -0-0---------------0-0----------------0-0---------------0-0----------------|

 
 ---------------------------------------------------------------------------|
 ---------------------------------------------------------------------------|
 ------9--12--9/15\14----9--12--9/15\14----9--12--9/15\14----9--12--9/15\14-|
 ------x---x--x--x--x----x---x--x--x--x----x---x--x--x--x----x---x--x--x--x-|
 ------7--10--7/13\12----7--10--7/13\12----7--10--7/13\12----7--10--7/13\12-|
 --0-0---------------0-0---------------0-0---------------0-0----------------|

Come and sleep with me for infinity, we'll spend some time and find the rest of you.
CHOURSE
[E] [E] [E] [Em] [Em] [Em] [G] [G] [G] [(E)/A]  
 
 -----------------------------------------------------------------------------|
 ----------------------8-----8----8-------------------------------------------|
 -----9-----9----9-----9-----9----9-----12-----12-----12--(9)/14~-------------|
 -----9-----9----9-----9-----9----9-----12-----12-----12--(x)--x---5p4--5p4---|
 -----7-----7----7-----7-----7----7-----10-----10-----10--(7)/12~-7---7----7--|
 -0-0-0--0--0--0-0--0--0--0--0--0-0--0---0--0---0--0---0----------------------|

 
 ----------------------------------------------------------12/19~(\12)--------|
 -----------------------------------------------------------------------------|
 -----------------------------------------------------------------------------|
 -----------------------------------------------------------------------------|
 -----------------------------------------------------------------------------|
 -----------------------------------------------------------------------------|

Break down, break down, reeling in your head
E E E Em Em Em D D D C D\(E)
 
 ------------------------------------------------------------------------------|
 ------------------------------------------------------------------------------|
 -----9-----9----9-----9-----9----9-----12-----12-----12--(9)/14~\(9)--14-12\--|(
 -----9-----9----9-----8-----8----8-----12-----12-----12--(x)--x--(x)--14-12\--|(
 -----7-----7----7-----7-----7----7-----10-----10-----10--(7)/12~\(7)--12-10\--|(
 -0-0-0--0--0--0-0--0--0--0--0--0-0--0---0--0---0--0---0--------------0--------|

Rain down, rain down, innocence is dead
 
 ---------------------------------------------------------------------------|
 ---------------------------------------------------------------------------|
 ---------------------------------------------------------------------------|
 ---------5~---8p7-----------5~---8p7----------5~---8p7----------5~---8p7---|
 -----5/7----7-----------5/7----7----------5/7----7----------5/7----7-------|
 -0-0---------------0-0----------------0-0---------------0-0----------------|

 
 -----------------------------------------------------------------------------|
 -----------------------------------------------------------------------------|
 -------9/14~~s\(9)-------9/14~~s\(9)--------9/14~~s\(9)-------9/14~~-9-15\14-|
 -------x--x----(x)-------x--x----(x)--------x--x----(x)-------x--x---x--x--x-|
 -------7/12~~s\(7)-------7/12~~s\(7)--------7/12~~s\(7)-------7/12~~-7-13\12-|
 -0-0-0-------------0-0-0-------------0-0-0--------------0-0-0----------------|

 
 ---------19~~~\(12)--------19~~~\(12)--------19~~~\(12)---------15--20-19~----|
 -17-17-17----------17-17-17----------17-17-17-----------17-17-17--17----------|
 ------------------------------------------------------------------------------|
 ------------------------------------------------------------------------------|
 ------------------------------------------------------------------------------|
 ------------------------------------------------------------------------------|

Goodbye Lament, Goodbye Lament, Goodbye Faith, I swear I won't believe!
[m] 
 
 ---------------------------------------------------------------------------|
 ---------------------------------------------------------------------------|
 ------9--12--9/15\14----9--12--9/15\14----9--12--9/15\14----9--12--9/15\14-|
 ------x---x--x--x--x----x---x--x--x--x----x---x--x--x--x----x---x--x--x--x-|
 ------7--10--7/13\12----7--10--7/13\12----7--10--7/13\12----7--10--7/13\12-|
 --0-0---------------0-0---------------0-0---------------0-0----------------|

Pray for me, fading memories, give me time and I will fade into you
 
 ---------------------------------------------------------------------------|
 ---------------------------------------------------------------------------|
 ------9--12--9/15\14----9--12--9/15\14----9--12--9/15\14----9--12--9/15\14-|
 ------x---x--x--x--x----x---x--x--x--x----x---x--x--x--x----x---x--x--x--x-|
 ------7--10--7/13\12----7--10--7/13\12----7--10--7/13\12----7--10--7/13\12-|
 --0-0---------------0-0---------------0-0---------------0-0----------------|

Come and dance with me, I will always be, sleeping behind the eyes that I'm
bleeding through
CHOURSE
[f] 
[E] [E] [E] [Em] [Em] [Em] [G] [G] [G] [(E)/A]  
 
 -----------------------------------------------------------------------------|
 ----------------------8-----8----8-------------------------------------------|
 -----9-----9----9-----9-----9----9-----12-----12-----12--(9)/14~-------------|
 -----9-----9----9-----9-----9----9-----12-----12-----12--(x)--x---5p4--5p4---|
 -----7-----7----7-----7-----7----7-----10-----10-----10--(7)/12~-7---7----7--|
 -0-0-0--0--0--0-0--0--0--0--0--0-0--0---0--0---0--0---0----------------------|

 
 ----------------------------------------------------------12/17~(\12)--------|
 -----------------------------------------------------------------------------|
 -----------------------------------------------------------------------------|
 -----------------------------------------------------------------------------|
 -----------------------------------------------------------------------------|
 -----------------------------------------------------------------------------|

Break down, break down, reeling in your head
E E E Em Em Em D D D C D\(E)
 
 ------------------------------------------------------------------------------|
 ------------------------------------------------------------------------------|
 -----9-----9----9-----9-----9----9-----12-----12-----12--(9)/14~\(9)--14-12\--|(
 -----9-----9----9-----8-----8----8-----12-----12-----12--(x)--x--(x)--14-12\--|(
 -----7-----7----7-----7-----7----7-----10-----10-----10--(7)/12~\(7)--12-10\--|(
 -0-0-0--0--0--0-0--0--0--0--0--0-0--0---0--0---0--0---0--------------0--------|

Rain down, rain down, innocence is dead
[Drum, Bass, Keyboard Bridge] 
[m] 
 
 ---------------------------------------------------------------------------|
 ---------------------------------------------------------------------------|
 ------9--12--9/15\14----9--12--9/15\14----9--12--9/15\14----9--12--9/15\14-|
 ------x---x--x--x--x----x---x--x--x--x----x---x--x--x--x----x---x--x--x--x-|
 ------7--10--7/13\12----7--10--7/13\12----7--10--7/13\12----7--10--7/13\12-|
 --0-0---------------0-0---------------0-0---------------0-0----------------|

believe
 
 -------------------------------------------------------------|
 -------------------------------------------------------------|
 ------9--12--9/15\14----9--12--9/15\14----9--12--9/15\14-----|
 ------x---x--x--x--x----x---x--x--x--x----x---x--x--x--x-----|
 ------7--10--7/13\12----7--10--7/13\12----7--10--7/13\12-----|
 --0-0---------------0-0---------------0-0---------------0-0--|

Goodbye Lament, Goodbye Lament, Goodbye Faith I swear I won't believe
CHOURSE
[E] [E] [E] [Em] [Em] [Em] [G] [G] [G] [(E)/A]  
 
 -----------------------------------------------------------------------------|
 ----------------------8-----8----8-------------------------------------------|
 -----9-----9----9-----9-----9----9-----12-----12-----12--(9)/14~-------------|
 -----9-----9----9-----9-----9----9-----12-----12-----12--(x)--x---5p4--5p4---|
 -----7-----7----7-----7-----7----7-----10-----10-----10--(7)/12~-7---7----7--|
 -0-0-0--0--0--0-0--0--0--0--0--0-0--0---0--0---0--0---0----------------------|

 
 ----------------------------------------------------------12/17~(\12)--------|
 -----------------------------------------------------------------------------|
 -----------------------------------------------------------------------------|
 -----------------------------------------------------------------------------|
 -----------------------------------------------------------------------------|
 -----------------------------------------------------------------------------|

Break down, break down, reeling in your head
[E] [E] [E] [Em] [Em] [Em] [G] [G] [G] [(E)/A]  
 
 -----------------------------------------------------------------------------|
 ----------------------8-----8----8-------------------------------------------|
 -----9-----9----9-----9-----9----9-----12-----12-----12--(9)/14~-------------|
 -----9-----9----9-----9-----9----9-----12-----12-----12--(x)--x---5p4--5p4---|
 -----7-----7----7-----7-----7----7-----10-----10-----10--(7)/12~-7---7----7--|
 -0-0-0--0--0--0-0--0--0--0--0--0-0--0---0--0---0--0---0----------------------|

 
 ----------------------------------------------------------12/17~(\12)--------|
 -----------------------------------------------------------------------------|
 -----------------------------------------------------------------------------|
 -----------------------------------------------------------------------------|
 -----------------------------------------------------------------------------|
 -----------------------------------------------------------------------------|

Rain down, rain down, innocence is dead
[E] [E] [E] [Em] [Em] [Em] [G] [G] [G] [(E)/A]  
 
 -----------------------------------------------------------------------------|
 ----------------------8-----8----8-------------------------------------------|
 -----9-----9----9-----9-----9----9-----12-----12-----12--(9)/14~-------------|
 -----9-----9----9-----9-----9----9-----12-----12-----12--(x)--x---5p4--5p4---|
 -----7-----7----7-----7-----7----7-----10-----10-----10--(7)/12~-7---7----7--|
 -0-0-0--0--0--0-0--0--0--0--0--0-0--0---0--0---0--0---0----------------------|

 
 ----------------------------------------------------------12/17~(\12)--------|
 -----------------------------------------------------------------------------|
 -----------------------------------------------------------------------------|
 -----------------------------------------------------------------------------|
 -----------------------------------------------------------------------------|
 -----------------------------------------------------------------------------|

Break down, break down, reeling in your head
E E E Em Em Em D D D C D\(E)
 
 ------------------------------------------------------------------------------|
 ------------------------------------------------------------------------------|
 ----------9----9-----9-----9----9-----12-----12-----12--(9)/14~\(9)--14-12\---|(
 -----9-----9----9-----8-----8----8-----12-----12-----12--(x)--x--(x)--14-12\--|
 -----7-----7----7-----7-----7----7-----10-----10-----10--(7)/12~\(7)--12-10\--|
 -0-0-0--0--0--0-0--0--0--0--0--0-0--0---0--0---0--0---0--------------0--------|

Rain down, rain down, innocence is dead
 
 ---------------------------------------------------------------------------|
 ---------------------------------------------------------------------------|
 ---------------------------------------------------------------------------|
 ---------5~---8p7-----------5~---8p7----------5~---8p7----------5~---8p7---|
 -----5/7----7-----------5/7----7----------5/7----7----------5/7----7-------|
 -0-0---------------0-0----------------0-0---------------0-0----------------|

 
 -----------------------------------------------------------------------------|
 -----------------------------------------------------------------------------|
 -------9/14~~s\(9)-------9/14~~s\(9)--------9/14~~s\(9)-------9/14~~-9-15\14-|
 -------x--x----(x)-------x--x----(x)--------x--x----(x)-------x--x---x--x--x-|
 -------7/12~~s\(7)-------7/12~~s\(7)--------7/12~~s\(7)-------7/12~~-7-13\12-|
 -0-0-0-------------0-0-0-------------0-0-0--------------0-0-0----------------|

 
 ---------19~~~\(12)--------19~~~\(12)--------19~~~\(12)---------15--20-19~\09-|
 -17-17-17----------17-17-17----------17-17-17-----------17-17-17--17----------|
 ------------------------------------------------------------------------------|
 ------------------------------------------------------------------------------|
 ------------------------------------------------------------------------------|
 ------------------------------------------------------------------------------|

Goodbye Lament, Goodbye Lament, Goodbye Faith, I swear I won't believe!
[Keyboard, Bass, Drum Outro] 

Important: The song above is NOT stored on the Chordie server. The original song is hosted at www.azchords.com. Chordie works as a search engine and provides on-the-fly formatting. Chordie does not index songs against artists'/composers' will. To remove this song please click here.

Text color:
Chord color:
Chord grids: 
Font size:    
Page size: 

E Em G
Rate #4 of 4 versions

Jango Player

Login - add to songbook

SHARE PAGE  



You need to log in to post comments