Guitar Tabs, Chords and Lyrics
Major upgrade!! After one year development the new version of Chordie is now online! Please give feedback.


Sabihin Mo Na  Top Suzara

14 years old
album:carry on
cp no:09212007056
Intro:D,Bm,F#,G
lead guitar effect(with distortion):
 
 E|---3--2-3------3--2-3-------5-2-2s5-7s5-3-|
 B|-2-----------2------------3---------------|
 G|------------------------------------------|
 D|------------------------------------------|
 A|------------------------------------------|
 E|------------------------------------------|

base guitar effect:
 
 E|------------------------|
 B|------------------------|
 G|------------------------|
 D|------------------------|
 A|------------------0-----|
 E|-0h2-3-2-0--------------|

verse:
[D] gusto kong magpal[Bm]iwanag[G] sa iyo
[A] ngunit di kinak[G]ausap
[D] di ko inasahang d[Bm]iringg[G]in mo
[A] nakatingala sa [G]ulap
[Bm] alam kong nasaktan [F#]na naman kita
[Bm] ngunit di ko naman [F#]sinasadya
[Bm] hinding-hindi na mau[F#]ulit sinta
[G] sana'y maniwala [A]ka
chorus:
sabihin mo n[D]a
kung anong gusto m[Bm]o
kahit a[F#]no'y gagawin
para lam[G]ang sa yo[A]
sabihin mo n[D]a
papaano [Bm]mo mapapa[F#]tawad[G]
Inro 2:
base guitar effect:
 
 E|--------------------------------|
 B|--------------------------------|
 G|--------------------------------|
 D|------------0-7h9-7-0-----------|
 A|--------------------------------|
 E|-0h2-3-2-0----------------------|

[D] ilang araw ng h[Bm]indi pinapa[G]nsin
[A] ilang araw pang [G]lilipas
[D] nakatanga sa harapa[Bm]n ng sa[G]lamin
[A] naghihintay ng bawat buk[G]as
[Bm] lahat naman tayo'y nag[F#]kakamali
[Bm] sinong di magsas[A]am[-]a[F#]
[Bm] ngunit papaano bab[F#]awi sa pagkakamali[G]
un ang mahalag[A]a
chorus:
sabihin mo n[D]a
kung anong gusto m[Bm]o
kahit a[F#]no'y gagawin
para lam[G]ang sa yo[A]
sabihin mo n[D]a
papaano [Bm]mo mapapa[F#]tawad[G]
bridge:
[Bm] patawarin mo s[A]ana sinta
di k[G]o sinasady[A]a
chorus: (ung chords po ne2ng chorus taasan nio n lng ng 1 step higher)
sabihin mo na
kung anong gusto mo
kahit ano'y gagawin
para lamang sa yo
sabihin mo na
papaano mo mapapatawad
 
 E|--------------------------------------------|
 B|-7h9-7s6-7h9-7s6----10h11-10s9--10h11-10s9--|
 G|--------------------------------------------|
 D|--------------------------------------------|
 A|--------------------------------------------|
 E|--------------------------------------------|
 E|------------12h14-12s11----------------------------|
 B|--------------------------10h11-10s9-10h11-10s9----|
 G|---------------------------------------------------|
 D|---------------------------------------------------|
 A|---------------------------------------------------|
 E|---------------------------------------------------|

sana poh magustuhan nio maraming salamat!!!hi nga pla sa mga
ko dyan sa san juan national high school!!pati na rin sa mga kabanda ko cna
and arguz!!hayy ang
mangapa!!

Important: The song above is NOT stored on the Chordie server. The original song is hosted at www.azchords.com. Chordie works as a search engine and provides on-the-fly formatting. Chordie does not index songs against artists'/composers' will. To remove this song please click here.

Text color:
Chord color:
Chord grids: 
Font size:    
Page size: 

A Bm D F# G
Rate #1 of 13 versions

Jango Player

Login - add to songbook

SHARE PAGE  



You need to log in to post comments