Guitar Tabs, Chords and Lyrics
Update 25:10. 13:00. Site is back up running again. Songbooks are recovered. Woring on getting search back up..


Patanga  Trace Bundy

================================================================================
Title : Patanga
Artist : Trace Bundy
Album : Adapt
================================================================================
This is as accurate as i can tab. The tappy bits & chords may not be written out
i‚??m no tab expert (this is my 3rd ever) This isn‚??t an easy song to play, especially tapping the
while doing the hammer-ons/pulloffs so its wise to know the song well in your
head before you attempt this.
For reference:
my version:
my slow version:
cheers & have fun!
TUNING - Standard
e
[B]  
[G]  
[D]  
[A]  
[E]  
Capo on 2nd Fret
Legend
 
 ------

/ \ = slide up/down
[12] = harmonic
[T] = tapped chord (i found tapping with the right hand 12 frets from the chord works)
e.g.
 
 e|---------------|
 A|----------[12]-|
 G|-------5-------|
 D|-------7-------|
 A|-------7-------|
 E|1/3\1----------|

[T] 
 
 e|-------------0---------------------0-----------------------0-----------------0----------|
 A|--------6---6-6----6----------6---6-6----6---------------0-------0-------0-------0------|
 G|----5------5-----5--------5------5-----5------------5---5--------------5---5---5---5----|
 D|0---------0-------------------------------------7------7--------------------------------|
 A|----------------------------------------------------------------------------------------|
 E|----------------------3---------3-----------5---------5-------5-----5-------------------|

*play 4 times
 
 e|---------0-------------0------------------------------0----------------0----------------|
 A|-----0--------------3---3--------------1--0-----1------------------0h1---1--------------|
 G|2--2-----------4--4---4---4------------2--2-----2--------------0h2---------2------------|
 D|3----------3---5------------0------2-----------------------0h2---------------0----------|
 A|3----------3---5---------------0-------------0-----0-----0------------------(0)---------|
 E|1------1---1/--3------------------------------------------------------------------------|

*play 3 times
 
 e|---------0-------------0------------------0----------------------------------0----------|
 A|-----0--------------3---3-------------0--0--3-1-0h1h0--0--------------0-----------------|
 G|2--2-----------4--4---4---4----1----1---1-------------2-2-1---------1-------------------|
 D|3----------3---5------------0--2--2-------------------------2-----2---------------------|
 A|3----------3---5---------------2--------------------------------2-----------------------|
 E|1------1---1/--3---------------0------------------------------0----------0----------1/--|

*play 1 time
 
 e|---------------------------------------------------0------------------------------------|
 A|---------------h1---1---x---1---1---1/-3--3--3--3--3-------3-3-----3-3-------3----------|
 G|(5)---[12]-5--------0h2-x---2---2---2/-4--4--4--4--4---0h4-4-4-0h4-4-4-0h4-4-4----------|
 D|(7)--------7\--(3)--3---x---3---3---3/-5--5--5--5--5---5-------5-------5---------5-/----|
 A|-7--x------7\--(3)--3-------3---3---3/-5--5--5--5--5-----------------------------5-/----|
 E|-5--x-----------------------------------------------------------------------------------|

[T] [T] [T] [T] [T] [T] [T] [T] [T] *play 3 times
 
 e|---------------------------------------------------0------------------------------------|
 A|---------------h1---1---x---1---1---1/-3--3--3--3--3------------------------------------|
 G|(5)---[12]-5--------0h2-x---2---2---2/-4--4--4--4--4---7p4------------------------------|
 D|(7)--------7\--(3)--3---x---3---3---3/-5--5--5--5--5-------9p5-7p5-------------5/-------|
 A|-7--x------7\--(3)--3-------3---3---3/-5--5--5--5--5---------------------------5/-------|
 E|-5--x-----------------------------------------------------------------------------------|

[T] [T] [T] [T] [T] [T] [T] [T] [T] *play 1 time
^hold chord & use right hand for
the pull-off bit then just 1 normal
strum
**the number of strums tabbed in the next sections may not be 100% perfect. But if you
the song, you‚??ll be alright**
 
 e|0000---0-------------0000---0-------------------0000---0-------------0000---0-------------0-|
 A|0000---0-------------1111---1--------1p0--------3333---3-------------3333h0-0---0h3p0h3p0---|
 G|5555h0-0h5-0h5p0h5p0-2222h0-0h2-0h2p0----2h0----4444h0-0h4-0h4p0h4p0-4444h0-0h4-0h4p0h4p0---|
 D|7777---7-------------3333---3----------------3/-5555---5-------------5555---5---------------|
 A|7777---7-------------3333---3----------------3/-5555---5-------------5555---5---------------|
 E|--------------------------------------------------------------------------------------------|

*play
times
 
 e|0--0--0--0--0---0-0-0---0-0----------1-1-3-3-1-0-3---3h5-5-5-3-3------------------------|
 A|0--0--8--8--8---1-1-1---1-1-----1----3-3-3-3-3-3-3---0---0-0-0-0------------------------|
 G|0--0--9--9--9---2-2-0h2-2-0h2p0-0----2-2-2-2-2-2----------------------------------------|
 D|10-10-10-10-10--3-3-3-----3-----3--0-0-0-0-0-0-0----------------------------------------|
 A|10-10-10-10-10--3-3-3-------------------------------------------------------------------|
 E|---------------------------------------------------3--------------3/--------------------|

*play 2 times
 
 e|0000---0-------------0000---0-------------------0000---0-------------0000---0-------------0-|
 A|0000---0-------------1111---1--------1p0--------3333---3-------------3333h0-0---0h3p0h3p0---|
 G|5555h0-0h5-0h5p0h5p0-2222h0-0h2-0h2p0----2h0----4444h0-0h4-0h4p0h4p0-4444h0-0h4-0h4p0h4p0---|
 D|7777---7-------------3333---3----------------3/-5555---5-------------5555---5---------------|
 A|7777---7-------------3333---3----------------3/-5555---5-------------5555---5---------------|
 E|--------------------------------------------------------------------------------------------|

*play
times
 
 e|0--0--0--0--0---0-0-0---0-0----------1-1-3-3-1-0-3---3h5-5-5-3-3------------------------|
 A|0--0--8--8--8---1-1-1---1-1-----1----3-3-3-3-3-3-3---0---0-0-0-0------------------------|
 G|0--0--9--9--9---2-2-0h2-2-0h2p0-0----2-2-2-2-2-2----------------------------------------|
 D|10-10-10-10-10--3-3-3-----3-----3--0-0-0-0-0-0-0----------------------------------------|
 A|10-10-10-10-10--3-3-3-------------------------------------------------------------------|
 E|---------------------------------------------------3--------------3/--------------------|

*play 2 times
**this is the part where you need to strum the chords & tap the drum beat on the body with
your right hand. I won‚??t be tabbing the drum rhythm, just the chords**
 
 e|0-------000-----000-----000-----000-----000-----000-----000-----------------------------|
 A|0-------000-----333-----333-----000-----000-----333-----333-----------------------------|
 G|5-------222-----444-----444-----555-----222-----444-----444-----------------------------|
 D|7-------333-----555-----555-----777-----333-----555-----555-----------------------------|
 A|7-------333-----555-----555-----777-----333-----555-----555-----------------------------|
 E|----------------------------------------------------------------------------------------|

*play 1 time
 
 e|0000---0-------------0000---0-------------------0000---0-------------0000---0---------------|
 A|0000---0-------------1111---1-------------------3333---3-------------3333---3---------------|
 G|5555h0-0h5-0h5p0h5p0-2222h0-0h2-0h2p0h2p0-------4444h0-0h4-0h4p0h4p0-4444h0-0h4-0h4p0h4p0---|
 D|7777---7-------------3333---3----------------3/-5555---5-------------5555---5---------------|
 A|7777---7-------------3333---3----------------3/-5555---5-------------5555---5---------------|
 E|--------------------------------------------------------------------------------------------|

*play 4 times, but listen
the
original for variations in
riff
 
 e|0--0--0--0--0---0-0-0---0-0----------1-1-3-3-1-0-3---3h5-5-5-3-3------------------------|
 A|0--0--8--8--8---1-1-1---1-1-----1----3-3-3-3-3-3-3---0---0-0-0-0------------------------|
 G|0--0--9--9--9---2-2-0h2-2-0h2p0-0----2-2-2-2-2-2----------------------------------------|
 D|10-10-10-10-10--3-3-3-----3-----3--0-0-0-0-0-0-0----------------------------------------|
 A|10-10-10-10-10--3-3-3-------------------------------------------------------------------|
 E|---------------------------------------------------3--------------3/--------------------|

*play 2 times
 
 e|----------------------------------------------------0------------------------------------|
 A|----------------h1---1---x---1---1---1/-3--3--3--3--3-------3-3-----3-3-------3----------|
 G|-(5)---[12]-5--------0h2-x---2---2---2/-4--4--4--4--4---0h4-4-4-0h4-4-4-0h4-4-4----------|
 D|-(7)--------7\--(3)--3---x---3---3---3/-5--5--5--5--5---5-------5-------5---------5-/----|
 A|--7--x------7\--(3)--3-------3---3---3/-5--5--5--5--5-----------------------------5-/----|
 E|--5--x-----------------------------------------------------------------------------------|

[T] [T] [T] [T] [T] [T] [T] [T] [T] *play 3 times
 
 e|----------------------------------------------------0--------------------0---------------|
 A|----------------h1---1---x---1---1---1/-3--3--3--3--3--------------------0---------------|
 G|-(5)---[12]-5--------0h2-x---2---2---2/-4--4--4--4--4---7p4--------------5---------------|
 D|-(7)--------7\--(3)--3---x---3---3---3/-5--5--5--5--5-------9p5-7p5--5/--7---------------|
 A|--7--x------7\--(3)--3-------3---3---3/-5--5--5--5--5----------------5/--7---------------|
 E|--5--x-------------------------------------------------------------------5---------------|

[T] [T] [T] [T] [T] [T] [T] [T] [T] *play 1 time
^hold chord & use right hand for
the pull-off bit
as always just check for minor variations in the strumming, pauses etc. Have fun & goog luck.

Important: The song above is NOT stored on the Chordie server. The original song is hosted at www.azchords.com. Chordie works as a search engine and provides on-the-fly formatting. Chordie does not index songs against artists'/composers' will. To remove this song please click here.

Text color:
Chord color:
Chord grids: 
Font size:    
Page size: 

A B D E G
Rate #1 of 1 versions

Jango Player

Login - add to songbook

SHARE PAGE  




You need to log in to post comments