Guitar Tabs, Chords and Lyrics
Server problems seems to be fixed. Chordie has been experiencing problems with songs disappearing. These issues now seems to be fixed, but still verifying the fix. If you find anything strange, please email admin@chordie.com.


At Transformation  The Tragically Hip

At Transformation by The Tragically Hip
Chords:
E7: 05XXXX
E: 07XXXX
G/D: X557XX
D5: X577XX
D7: X575XX
G5: 355XXX
C5: X355XX
E5: 0799XX
G: 320033
Cadd9: X32033
E5II: 022XXX
Bass intro:
 
 |---------------|
 |---------------|
 |----7-7-7-7--7-|
 |-0-------------|

Riff A:
[E7] [E]  
 
 |---------------|
 |---------------|
 |---------------|
 |---------------|
 |-5--5-7-7-7--7-|
 |-0--0-0-0-0--0-|

Riff B:
[G/D] [D] [D7]  
 
 |-----------------|
 |-----------------|
 |-7--7--7-7--7--5-|
 |-5--5--5-7--7--7-|
 |-5--5--5-5--5--5-|
 |-----------------|

Riff C:
 
 |----------------|
 |----------------|

|-2^(2)-(0)-(0)--|
 
 |------------2---|
 |----------------|
 |----------------|

Riff D:
[E5]  
 
 |-----------0-------|
 |-----------0-------|
 |-9---9-9---9---9-9-|
 |-9---9-9-------9-9-|
 |-7---7-7-------7-7-|
 |-0---0-0-------0-0-|

Intro: Riff A
Riff B
Gently breathing
Riff A
Lit by the morning sun
Riff B
Through the night
Riff A
It had been raining venom
Riff C/A
I don't want to be kind
Not a bullet in the right place
Riff B
Or just of two minds
Riff A
More important than important
I want to help you lift enormous [G5]things
C5 Riff D
A pinch, a sting, I don't feel a thing
[G5]As the Earth re[C5]volved around the [E5]sun
Riff A G/D
 
 |-------------------3(5)(3)(0)-----10(12)~-----7--3(5)(3)(0)-------------------|
 |-3(5)~--3(5)(3)(0)------------------------------------------3-5~-3(5)(3)(0)---|
 |----------------------------------------------------------------------------0-|
 |----------------------------------------------------------------------------0-|
 |------------------------------------------------------------------------------|
 |------------------------------------------------------------------------------|

Riff B
All those shadows
Riff A
Waiting on the last lights
Riff B
If I dream of being
Riff A
Here comes the night
All of the tiptoeing
Riff C/A
Past our all most fear building
Riff B
I only say this now because
Riff A
I didn't when it was happening
I want to help you lift enormous [G5]things
C5 Riff D
A pinch, a sting, I don't feel a thing
But [G5]as the Earth re[C5]volves around the[E5] sun
[(G]I c[Cadd9)]an see it all at once
And, oh, what a glittering chance
In my head the game goes quiet
And I can see it all at once
Figuring you're not the goods
A kid before the rapids
But in my head the game is quiet
Oh, what a glittering chance
Oh, what a glittering chance
Oh, what a glittering chance
At transformation
At transformation
It's my dream of being
That's my dream of being
It's my dream of being
Riff A
 
 |-0(5)(7)~----10(12)~----3(5)(3)(0)-5~--3~--5(3)(0)--------|
 |----------------------------------------------------3/5---|
 |----------------------------------------------------------|
 |----------------------------------------------------------|
 |----------------------------------------------------------|
 |----------------------------------------------------------|
 |----------------------------------------------------------|
 |----------------------------------------------------------|
 |------0---2(4)(2)(0)-2--0------2(4)(2)(0)-2~--0(2)(0)-----|
 |-0(2)----------------------2-------------------------2----|
 |----------------------------------------------------------|
 |----------------------------------------------------------|
 |----------------------------------------------------------|
 |----------------------------------------------------------|
 |----------------------------------------------------------|
 |-2--------2---4(2)---2------------------------------------|
 |-----2(4)----------4---4--0-(2)--0------------------------|
 |------------------------------------4\2-0-----------------|

End on E5II

Important: The song above is NOT stored on the Chordie server. The original song is hosted at www.azchords.com. Chordie works as a search engine and provides on-the-fly formatting. Chordie does not index songs against artists'/composers' will. To remove this song please click here.

Text color:
Chord color:
Chord grids: 
Font size:    
Page size: 

C5 Cadd9) D D7 E E5 E7 G/D G5
Rate #1 of 2 versions

Login - add to songbook

SHARE PAGE  




You need to log in to post comments