Guitar Tabs, Chords and Lyrics
Major upgrade!! After one year development the new version of Chordie is now online! Please give feedback.


Eldorado  The Tragically Hip

Capo 3
Chords used(relative to capo):
[E5] [F5] [G5] [A5] [Em] [F] [G] [A]  
 
 e|--x----x----x----x----x----x----x----x--|
 B|--x----x----x----x----x----x----x----x--|
 G|--x----x----x----x----0----2----4----6--|
 D|--2----3----5----7----2----3----5----7--|
 A|--2----3----5----7----2----3----5----7--|
 E|--0----1----3----5----0----1----3----5--|

For the verses:
E5 is picked like this:
 
 e|---------------------------------------------|
 B|---------------------------------------------|
 G|---------------------------------------------|
 D|-----0-2-------0-2---------0-2-------0-2-----|
 A|---2-----2---2-----2---2-2-----2---2-----2---|
 E|-0---------0---------0-----------0---------0-|

F5 like this: G5 like this:
 
 e|-----------------| e|-----------------|
 B|-----------------| B|-----------------|
 G|-----------------| G|-----------------|
 D|--------3--------| D|--------5--------|
 A|----3-----3---3--| A|----5-----5---5--|
 E|--1---1-----1----| E|--3---3-----3----|

Riffs:
(Riff 1): (Riff 2):
 
 e|-------------------| e|-----------|
 B|-------------------| B|-----------|
 G|-------------------| G|-----------|
 D|--2h4/6-4-7p6-4-6--| D|--4p2-0-2--|
 A|-------------------| A|-----------|
 E|-------------------| E|-----------|

[E5]  
[E5] He's a man-sized Eldorado
[E5] Hooved a doo, And who could blame him[F5]
[G5] Who could blame him
[E5] Where we going? What's the ticket?
Just the mention of Berlin makes me sexy[F5]
[G5] it makes me sexy
[E5] And tired of thinking about drinking
For thinking of dr[G5]inking
While thinking about dr[A5]inking
And thinking about dr[E5]inking
It's a [G5]man-sized i[A5]nside[E5]
[E5]  
E5 (Riff 1)
Look in here, it's all hardwood
[E5] What's that smell? Smells like coffee[F5]
[G5] It smells like coffee
E5 (Riff 2)
If you regret it please say something
I've got no genius for evil that makes me common[F5]
[G5] It makes me common
[Em] And tired of loving, recovering
Loving, rec[G]overing
Loving, rec[A]overing
E5 (Riff 2)
Loving, recovering
G A E5 (Riff 2) G A
It's a man-sized inside
E5 (Riff 2)
E5 (Riff 1)
He's a man-sized Eldorado
[E5] Whoopty-do If you can't take it[F5]
[G5] you can't take it
E5 (Riff 2)
Where's he going? What's that ticking?
Just the mention of Berlin makes me sexy[F5]
[G5] It makes me sexy
[Em] And tired of thinking about drinking
For thinking of dr[G]inking
While thinking about dr[A]inking
E5 (Riff 2)
And thinking about drinking
[G]Tired of loving, rec[A]overing
Loving, rec[E5]overing
(Riff 2)
Loving, recovering
Loving, reco[G]vering[A]
E5 (Riff 2) G A
It's a man-sized inside
E5 (Riff 2) G A E5 (Riff 2)
It's a man-sized inside
G A E5 (Riff 2)
Insi......de
Ins[G]ide[A]
E5 (Riff 2) G A
In.......side
E5 (Riff 2)
Inside
G A E5 (Riff 2)
In.....side
G A E5 (Riff 2)
Insi.....de
G A E5 (Riff 2)
In.....side
(Continue and fade...)

Important: The song above is NOT stored on the Chordie server. The original song is hosted at www.azchords.com. Chordie works as a search engine and provides on-the-fly formatting. Chordie does not index songs against artists'/composers' will. To remove this song please click here.

Text color:
Chord color:
Chord grids: 
Font size:    
Page size: 

A A5 E5 Em F F5 G G5
Rate #1 of 1 versions

Jango Player

Login - add to songbook

SHARE PAGE  



You need to log in to post comments