Guitar Tabs, Chords and Lyrics
Update 25:10. 13:00. Site is back up running again. Songbooks are recovered. Woring on getting search back up..


Drunken Chorus  Trashcan Sinatras

Drunken Chorus - The Trash Can Sinatras
* - Barred chord S - Slide
T - Tenth fret H - Hammer
E - Eleventh fret P - Pick
W - Twelth fret B - Bend
riff1 riff2 riff3
G* D G G
 
 e----T-----T-----T-------- e------------7-8-T-0-3-- e---------------------
 B------W-----W-------W---- B------7-8-T-------0-0-- B---------------------
 G--W-----W-----W-------W-- G--7-9-------------0-0-- G---------------------
 D--W---------------------- D--------------------0-- D---------------------
 A--T---------------------- A--------------------2-- A---------------------
 E--T---------------------- E--------------------3-- E--7-8ST-T---7-8SW-T--

start here
INTRO
[G] [D] [Am] [C] [D]  
 
 e-3P2-----0H2-0------------------------------------------------------0---
 B-----2---------3-------3-0-----------0-------------1-0---------33-3--3--
 G-2-----2---------0H2-0-----2-0---0-----2-0-----0-------2-----0----------
 D-------------------------------2---2-------2-2---2-------0H2------------
 A------------------------------------------------------------------------
 E------------------------------------------------------------------------

G Am C D let ring...
 
 e------------------------------------------------
 B-0-0---3-0-----------0-------1-----1-0-----3----
 G-0---0-----2-2-0-0-----2-0---0-0-------2-0-2----
 D-0-------------2---2-------2-2---2---------0----
 A-2-------------0-------------3-------------0----
 E-3-------------0-------------3-------------0----

[G]I'm looking on the [Am]bright side, but I [C]still don't see the [D]light
And [G]why are friends so [Am]hard to find on [C]Wednesday [D]night?
I've got a [G]ten pound note in my [Am]pocket, that'll [C]never find it's way back [D]home
[G]And you thought I'd be [C]lonely when you'd [G]gone.
[G]Discipline is a [Am]shelter, the [C]punishment's my [D]home
[G]Built on [Am]sticks and stones and [C]now, brittle [D]bones
[G]I'm just a [Am]slip of a thing, and [C]now I'm on the [D]slide
G* C* G* (riff1) C*-D*-Am*
And I get so confused on my own
Am* C* G*
Barmaids beware
Am* C* G* D* (riff2)
Sweet-stout style and whiskey-drunk flair
CHORUS
G* Bm* C* D*
I'm drinking the wishing-well dry, and collecting the coins
G* C* D*
And my cup's brimming over with bliss-ss oh-oh
G* Bm* C* Am*
Seems that when my throat gets dry, my words get wry
G* C* D* G (riff3)
And I raise my glass like a fist,... every sips a kiss
[G]You used to [Am]say my secrets were [C]safe[D]
[G]And that I had no [Am]need to lock them a[C]way[D]
[G]But I could kick myself to death for [Am]leaving you the key
And [C]now I know what se[D]curity means to me
G* C* G* C*-D*-Am*
It's hard to get a hold of what it means to me
Am* C* G*
And it's hard to get out... of the gutter
Am* C* G* D* (riff2)
When it's raining feet and every helping hand's a fist
CHORUS
G* Bm* C* D*
I'm drinking the wishing-well dry, and collecting the coins
G* C* D*
And my cup's brimming over with bliss-ss
G* Bm* C* Am*
Seems that when my throat gets dry, my words get wry
G* C* D* G
And I raise my glass like a fist,... every sips a kiss
SOLO
[Am] [C] [G] [Am] [C] [G] [D]  
 
 e-----------------------------T-7---T-7---TB-TTTS888-777-S5-5-5------------
 B---------------------------------8-----8-------------------7-7------------
 G-T-TP9-7-----9---------9-----------------------------------7-7------------
 D---------8S9---9S5-8S9---9S5-------------------------------7-7------------
 A-----------------------------------------------------------5-5------------
 E-----------------------------------------------------------5-5------------

[C] [G] [C] [G] [C] [Am] [C] [D]  
 
 e-----------------------------7-----7B--EB-EEEEEEES99------------------2---
 B-----------------8-----T-------------8---------------0H1P0-------0----3---
 G-----9S7-----9S7---7-----7-----7---------------------------2-0-2---0--2---
 D-8S9-----8S9---------9-----9-----9------------------------------------0---
 A----------------------------------------------------------------------0---
 E----------------------------------------------------------------------0---

[D]But hey where will I [G]go, and [C]now that you have [G]gone,
And [C]now that you have [G]gone, and [C]now that it has [G]go..[C]one,
Where will I [G]go, no [C]no where, where will I [G]go,
No [C]no.., where will I [G]go, no [C]nowhere.
G* Bm G
Kenny Gan
KG

Important: The song above is NOT stored on the Chordie server. The original song is hosted at www.azchords.com. Chordie works as a search engine and provides on-the-fly formatting. Chordie does not index songs against artists'/composers' will. To remove this song please click here.

Text color:
Chord color:
Chord grids: 
Font size:    
Page size: 

Am C D G
Rate #6 of 7 versions

Jango Player

Login - add to songbook

SHARE PAGE  




You need to log in to post comments