Guitar Tabs, Chords and Lyrics
Major upgrade!! After one year development the new version of Chordie is now online! Please give feedback.


3 Times and You Lose  Travis

 
 ---------------------------------------------------------------------------
 ----------------------------------------------------------------------------

i dont think this is 100% correct but its a good start
Tuning:Standard
[Dm] [F] [C] [Dm] 
 
 e|--------1---------------1---------0-------------1-------------------------|
 B|--------3---------------1---------1-------------3-------------------------|
 G|------2---------------2---------0--------------2--------------------------|
 D|----0----------------------------------------0----------------------------|
 A|------------------------------3--------4----------------------------------|
 E|--------------------1-----------------------------------------------------|

i had______ a nightmare i__ lived in a little town
[F] [G]  
 
 e|------------------------------------------------------------------------|
 B|----------------1---------------3---------------------------------------|
 G|-------------2----2-------------4---------------------------------------|
 D|----------3----------3-------5------------------------------------------|
 A|------------------------------------------------------------------------|
 E|-------1------------------3---------------------------------------------|

where little dreams were broken________
[F] [G]  
 
 e|------------------------------------------------------------------------|
 B|----------------1---------------3---------------------------------------|
 G|-------------2----2-------------4---------------------------------------|
 D|----------3----------3-------5------------------------------------------|
 A|------------------------------------------------------------------------|
 E|-------1------------------3---------------------------------------------|

and words were seldom spoken______
[Dm] [F] [C] [Dm] 
 
 e|--------1---------------1---------0-------------1-------------------------|
 B|--------3---------------1---------1-------------3-------------------------|
 G|------2---------------2---------0--------------2--------------------------|
 D|----0----------------------------------------0----------------------------|
 A|------------------------------3--------4----------------------------------|
 E|--------------------1-----------------------------------------------------|

i tried to reach you, but all the lines were down
[F] [G]  
 
 e|-------------------------------------------------------------------------|
 B|----------------1-----------------3--------------------------------------|
 G|-------------2----2-------------4---4------------------------------------|
 D|----------3----------3-------5--------5----------------------------------|
 A|-------------------------------------------------------------------------|
 E|-------1------------------3----------------------------------------------|

and so the rain began to fall
[F] [G] [Dm]  
 
 e|-----------------------------1---------------------------------------------|
 B|-----------------------------3---------------------------------------------|
 G|-------2------4------------2-----------------------------------------------|
 D|-----3------5------------0-------------------------------------------------|
 A|-------------------3-------------------------------------------------------|
 E|--1--------3---------------------------------------------------------------|

on this little town
[Dm] [F] [G]  
 
 e|---------------------------------------------------------------------------|
 B|-----3--3------------------------------------------------------------------|
 G|---2--2--2----2--2------4--------------------------------------------------|
 D|--0---------3--3--3----5---------------------------------------------------|
 A|---------------------------------------------------------------------------|
 E|---------1----------3------------------------------------------------------|

ooooooooooooh ooooooooooh this little town
START TO STRUM
Dm (you can hammer on with the pinkie-onto the third fret of the high e string)
[Dm] [Dm] [Dm] [Dm]  
the l[Dm]ittle p[F]eople had [C]very little left to [Dm]say
there w[F]ords had all been [G]shortened it d[F]idnt really seem i[G]mportant
and i [Dm]had a [F]feeling that [C]you were very far [Dm]away
but [F]then a little voice i[G]nside me said
your [C]never gonna get away from h[Dm]ere
[Dm] [Dm] [Dm] [Dm]  
CHORUS
and its [F]one, [Am]two, t[C]hree times and you [Dm]lose
of c[G]ourse it doesnt matter how you say it
[C]im all out of luck
so theres [Am]nothing really more to [Dm]say
[Am]im throwing it all aw[Dm]ay
[Dm] [Dm] [Dm] [Dm]  
VERSE
Well we [Dm]had [F]opinions but [C]now we all think the s[Dm]ame
we n[F]ever look at o[G]ne another o[F]nly when the [G]other suffers
and i th[Dm]ought i saw [F]you but it was j[C]ust another f[Dm]ace
[F]plastered on a b[G]lank horizon r[C]unning in the human r[Dm]ace
[Dm] [Dm] [Dm] [Dm]  
CHORUS
and its [F]one, [Am]two, t[C]hree times and you [Dm]lose
of c[G]ourse it doesnt matter how you say it
[C]im all out of luck
so theres [Am]nothing really more to [Dm]say
[Am]im throwing it all aw[Dm]ay
X2
(im pretty sure there will be a few cos some bits were tricky)

Important: The song above is NOT stored on the Chordie server. The original song is hosted at www.azchords.com. Chordie works as a search engine and provides on-the-fly formatting. Chordie does not index songs against artists'/composers' will. To remove this song please click here.

Text color:
Chord color:
Chord grids: 
Font size:    
Page size: 

Am C Dm F G
Rate #1 of 4 versions

Login - add to songbook

SHARE PAGE  




You need to log in to post comments