Guitar Tabs, Chords and Lyrics
Major upgrade!! After one year development the new version of Chordie is now online! Please give feedback.


Before You Were Young  Travis

2:16
[G] [D] [Em] [D]  
 
 e----------------------------------------------|
 b----------------------------------------------|
 g-----5--7--11----12-14-17--16--14--12-7---5---|
 d--9-------------------------------------------|
 a----------------------------------------------|
 e----------------------------------------------|

2:33
[G] [D] [Em] [D]  
 
 e--------------------------------------------------|
 b--------------------------------------------------|
 g-----5--7--11----12--14-17-16-14-12--16-14-12-11--|
 d--9-----------------------------------------------|
 a--------------------------------------------------|
 e--------------------------------------------------|


Important: The song above is NOT stored on the Chordie server. The original song is hosted at www.azchords.com. Chordie works as a search engine and provides on-the-fly formatting. Chordie does not index songs against artists'/composers' will. To remove this song please click here.

Text color:
Chord color:
Chord grids: 
Font size:    
Page size: 

D Em G
Rate #1 of 4 versions

Login - add to songbook

SHARE PAGE  




You need to log in to post comments