Guitar Tabs, Chords and Lyrics
Major upgrade!! After one year development the new version of Chordie is now online! Please give feedback.


Happy to Hang Around  Travis

 
 ----------------------------------------------------------------------------
 ----------------------------------------------------------------------------

Capo en 7o Traste (Capo in 7th)
(Esta versión se escucha como la del DVD Travis At The Palace)
(This version is listened to like the one of the DVD Travis AT The
Palace)
Intro: Em C Em C
Solo (Guitarra Eléctrica -limpia-) (Electric Guitar -clean-)
 
 e|-----10------9-----7------------------------|
 B|--7------7------7---------10-----8---8------|
 G|--------------------------------------------|
 D|--------------------------------------------|
 A|--------------------------------------------|
 E|--------------------------------------------|

(Se repite 3 veces más) (repeat 3 more times)
[Em]They were following me
They were following every[C]one[Em]
They had visions of me
Holding hands walking in to the s[C]un[Em]
Now people get down, people get down, people get hu[C]rt[Em]
When you did it to me
I was already in the gro[C]und
And I'll n[D]ever get into your he[C]art
No I do[Em]n't even wa[D]nt to st[C]art
I'll ne[D]ver get into your he[C]art
I'm just h[Em]appy to ha[D]ng aro[C]und
H[Em]appy to ha[D]ng aro[C]und
H[Em]appy to ha[D]ng aro[C]und.[Em]
 
 e|---14-14-14-12---------------|-----------------------------------------|
 B|----------------15-15-15-14--|--14-12-10-12----12-12---10-12----10-12--|
 G|-----------------------------|---------------12------12-------12-------|
 D|-----------------------------|-----------------------------------------|
 A|-----------------------------|-----------------------------------------|
 E|-----------------------------|-----------------------------------------|
 e|-----9-------10--|
 B|-------7--10-----|
 G|-----------------|
 D|-----------------|
 A|-----------------|
 E|-----------------|
 e|-----10------9-----7------------------------|
 B|--7------7------7---------10-----8---8------|
 G|--------------------------------------------|
 D|--------------------------------------------|
 A|--------------------------------------------|
 E|--------------------------------------------|

[Em]Take a picture of me
And show it to everyo[C]ne,[Em]
No more pictures of you
No more love, no more setting s[C]un[Em]
Now people get down, people get down, people get h[C]urt[Em]
When you did it to me
I was already in the d[C]irt
And I'll n[D]ever get into your he[C]art
No I do[Em]n't even wa[D]nt to st[C]art
I'll ne[D]ver get into your he[C]art
I'm just h[Em]appy to ha[D]ng aro[C]und
H[Em]appy to ha[D]ng aro[C]und
H[Em]appy to ha[D]ng aro[C]und.[Em] [D] [C]
Solo (Guitarra Eléctrica con distorsión) (Electric Guitar With Distortion)
(La guitarra acústica continúa...) (Acoustic Guitar Continues...)
[Em] [C]  
 
 e|----------------------------|-----------------------------|
 B|----------------------------|-----------------------------|
 G|----4-4-4-4--4-4-4-4--4-4-4-|-----------------------------|
 D|----4-4-4-4--4-4-4-4--4-4-4-|---5-5-5-5--5-5-5-5--5-5-5---|
 A|----2-2-2-2--2-2-2-2--2-2-2-|---5-5-5-5--5-5-5-5--5-5-5---|
 E|----------------------------|---3-3-3-3--3-3-3-3--3-3-3---|

[Em] [C]  
 
 e|----------------------------|-----------------------------|
 B|----------------------------|-----------------------------|
 G|----4-4-4-4--4-4-4-4--4-4-4-|-----------------------------|
 D|----4-4-4-4--4-4-4-4--4-4-4-|---5-5--5-7-7-7-7-7-7--------|
 A|----2-2-2-2--2-2-2-2--2-2-2-|---5-5--5-7-7-7-7-7-7--------|
 E|----------------------------|---3-3--3-5-5-5-5-5-5--------|

[Em] [C]  
 
 e|----------------------------|-----------------------------|
 B|----------------------------|-----------------------------|
 G|----4-4-4-4--4-4-4-4--4-4-4-|-----------------------------|
 D|----4-4-4-4--4-4-4-4--4-4-4-|---5-5-5-5--5-5-5-5--5-5-5---|
 A|----2-2-2-2--2-2-2-2--2-2-2-|---5-5-5-5--5-5-5-5--5-5-5---|
 E|----------------------------|---3-3-3-3--3-3-3-3--3-3-3---|

[Em] [C]  
 
 e|----------------------------|-------------------------9---|
 B|----------------------------|-------------------------10--|
 G|----4-4-4-4--4-4-4-4--4-4-4-|-------------------------9---|
 D|----4-4-4-4--4-4-4-4--4-4-4-|---5-5-5---7-7-7--9-9-9------|
 A|----2-2-2-2--2-2-2-2--2-2-2-|---5-5-5---7-7-7--9-9-9------|
 E|----------------------------|---3-3-3---5-5-5--7-7-7------|

And I'll n[D]ever get into your he[C]art
No I do[Em]n't even wa[D]nt to st[C]art
I'll ne[D]ver get into your he[C]art
I'm just h[Em]appy to ha[D]ng aro[C]und
H[Em]appy to ha[D]ng aro[C]und
H[Em]appy to ha[D]ng aro[C]und.

Important: The song above is NOT stored on the Chordie server. The original song is hosted at www.azchords.com. Chordie works as a search engine and provides on-the-fly formatting. Chordie does not index songs against artists'/composers' will. To remove this song please click here.

Text color:
Chord color:
Chord grids: 
Font size:    
Page size: 

C D Em
Rate #1 of 5 versions

Login - add to songbook

SHARE PAGE  



You need to log in to post comments