Guitar Tabs, Chords and Lyrics
Major upgrade!! After one year development the new version of Chordie is now online! Please give feedback.


Reminder  Travis

Riff 1
[F5] [D5] [C5] [Bb5]  
 
 E|----------------------------------------------------------------------
 B|----------------------------------------------------------------------
 G|----------------------------------------------------------------------
 D|---10---10---10---10---7---7---7---7---5---5---5---5---3---3---3---3--
 A|-8----8----8----8----5---5---5---5---3---3---3---3---1---1---1---1----
 E|----------------------------------------------------------------------

Riff 2
[F5]  
 
 E|----------------------------------
 B|----------------------------------
 G|----------------------------------
 D|---3---3---3---3---3---3---3---3--
 A|-----3-------3-------3-------3----
 E|-1-------1-------1-------1--------

Riff 1 (2 times) - Riff 2
W h i s t l e
(Riff 1)
[F5]Celebr[D5]ate, [C5]don't be [Bb5]late
[F5]Finish [D5]what's [C5]on your [Bb5]plate
[F5]Be the [D5]change you [C5]wanna [Bb5]see
[F5]Seek the [D5]truth, [C5]set it [Bb5]free
And I wanna tell you
Riff 3
[D5] [C5]  
 
 E|----------------------------------
 B|----------------------------------
 G|----------------------------------
 D|---7---7---7---7---5---5---5---5--
 A|-5---5---5---5---3---3---3---3----
 E|----------------------------------

(Riff 3)
[D5]This is a reminder
C5 F5 (Riff 2)
This is a reminder
[D5]This is a reminder
C5 F5 (Riff 2)
This is a reminder
(Riff 1)
[F5]Why does [D5]time [C5]move so [Bb5]fast?
[F5]Precious [D5]things [C5]never [Bb5]last
[F5]Figure [D5]out, [C5]don't forg[Bb5]et
[F5]Only [D5]love, [C5]no regr[Bb5]ets
And I gotta tell you
(Riff 3)
[D5]This is a reminder
C5 F5 (Riff 2)
This is a reminder
[D5]This is a reminder
C5 F5 (Riff 2)
This is a reminder
Riff 4
 
 E|----------------------------------
 B|----------------------------------
 G|----------------------------------
 D|---0---2---0---3---0---2---0---0--
 A|-1---1---1---1---1---1---1---1----
 E|----------------------------------

Riff 5
 
 E|------------------------------
 B|------------------------------
 G|---------------0--------------
 D|---2---3---2-------2---3---2--
 A|-3---3---3---3---3---3---3----
 E|------------------------------

(Riff 4)
All of the things you never noticed
F5 (Riff 2)
All of the lines you cling to that don't mean a thing
(Riff 4)
All of the dates that you were late for
(Riff 5)
All of the rounds you should've paid for
Riff 1 (2 times)
W h i s t l e
And I gotta tell you
(Riff 3)
[D5]This is a reminder
C5 F5 (Riff 2)
This is a reminder
[D5]This is a reminder
C5 F5 (Riff 2)
This is a reminder
[D5]This is a reminder
C5 F5 (Riff 2)
This is a reminder
[D5]This is a reminder
C5 F5 (Riff 2)
This is a reminder
Riff 6
 
 E|---------------------------------------------------------------------
 B|---------------------------------------------------------------------
 G|---------------------------------------------------------------------
 D|---3---3---3---3---3---3---3---3---3---3---3---3---3---3---3-----3~--
 A|-----0-------1---0---3---1-----------0-------1---0---3---1-------3~--
 E|-1-------3-------------------3---1-------3-------------------0---1~--

One, Two, Three, Four
Riff 6

Important: The song above is NOT stored on the Chordie server. The original song is hosted at www.azchords.com. Chordie works as a search engine and provides on-the-fly formatting. Chordie does not index songs against artists'/composers' will. To remove this song please click here.

Text color:
Chord color:
Chord grids: 
Font size:    
Page size: 

Bb5 C5 D5 F5
Rate #1 of 1 versions

Jango Player

Login - add to songbook

SHARE PAGE  




You need to log in to post comments