Guitar Tabs, Chords and Lyrics
Server problems seems to be fixed. Chordie has been experiencing problems with songs disappearing. These issues now seems to be fixed, but still verifying the fix. If you find anything strange, please email admin@chordie.com.


U16 Girls  Travis

SongTitle: Under16 Girls
Intro (I can't tab the timing, so listen to the song)
 
 E-x-x---3-3-3-3-----2-0-------0------3-3-3-3--------------------E
 B-x-x---3-3-3-3---------3-0-0--------1-1-1-1--------------------B
 G-x-x---1-1-1-1----------------------2-2-2-2-----------------0--G
 D-x-x---2-2-2-2---0------------------2-2-2-2---------0---0h2----D
 A-x-x---2-2-2-2--------------------0-------------0h2------------A
 E-0-0---x-x-x-x-------------------------------------------------E

Bridge1 (na na na na na na na)
 
 E-----------------------------------------------E
 B-----------------------------------------------B
 G-----------------------------------------------G
 D------2--2--0--2--0--2^3^2--0-----0--2---------D
 A-------------------------------2--------0------A
 E---0-------------------------------------------E

Bridge2 (when i called her number, her mother's on the line ...)
 
 E---------------------------------0-0-0----------------2--2-3-2-E
 B---------------------------------0-0-0-1x-1x-1x-1x-1x-3--3-3-3-B
 G---------------------0--2--------0-0-0-0x-0x-0x-0x-0x-2--2-2-2-G
 D---2-----2--1--2--4--------4-----0-0-0-2x-2x-2x-2x-2x-0--0-0-0-D
 A------2-----------------------0--------3x-3x-3x-3x-3x----------A
 E---------------------------------------------------------------E

Solo
 
 E----------------------------------------------------------------
 B---------------------------3------------------------------------
 G--2^--2^p0-----0-------2^-----2^3^2--0-----0------------------0-
 D------------2-----2p0-------------------2-----2--0---------0h2--
 A----------------------------------------------------0h2h3-------
 E----------------------------------------------------------------
 --------------------------------------10------------------------E
 -------------------3-------------10^------10^11^10--8-----8-----B
 ----------0--2^-----2^--2^--0------------------------9-----9--7-G
 ------0h2-------------------------------------------------------D
 -0h2h3----------------------------------------------------------A

Rythm Guitar and Lyrics
Bridge1
[Em]Na na na na na na na na na na
[Am]Na na na na na na na na na na na
Verse 1 (mostly single strums)
[Em]I met a girl in L.A[D5] [D5] ,
[Am]the million dollar kind
[Em]She was all, all or nothing[D5] [D5] ,
[Am]open all the time
Bridge2
[Em]But when I called her nu[B]mber, her mo[G]ther's on the l[B7]ine ...
sayin yo[C]u've no business, as god's my witness with a ch[D]ild
as young as m[D]ine
Chorus
So make s[G]ure that she's o[Em]ld enough, be[C]fore you blow your m[D]ind,
she may l[G]ook like she k[Em]nows enough, but l[C]ook her in the e[D]ye,
[G] [B7] [C] [D]  
 
 and so, let her go, you let her down in s--t--yyy--l-e

Bridge1
Verse 2
[Em]I met a girl in Paris[D5] [D5] ,
[Am]she talked like Vera Lynn
[Em]And her eyes were filled with dew drops[D5] [D5] ,
[Am]the moment I walked in
Bridge2
[Em]She was awfu[B]lly nice, the ki[G]nd I'd like to w[B7]in,
But if I[C]'d been wiser, a whole lot wiser,
th[D]en I might have thought ag[D]ain
Chorus
Solo
Bridge2
Chorus

Important: The song above is NOT stored on the Chordie server. The original song is hosted at www.azchords.com. Chordie works as a search engine and provides on-the-fly formatting. Chordie does not index songs against artists'/composers' will. To remove this song please click here.

Text color:
Chord color:
Chord grids: 
Font size:    
Page size: 

Am B B7 C D D5 Em G
Rate #1 of 9 versions

Jango Player

Login - add to songbook

SHARE PAGE  




You need to log in to post comments