Guitar Tabs, Chords and Lyrics
Server problems seems to be fixed. Chordie has been experiencing problems with songs disappearing. These issues now seems to be fixed, but still verifying the fix. If you find anything strange, please email admin@chordie.com.


Why Does It Always Rain on Me?  Travis

"(1)
These are the chords to use
[G] [G-G#] [G-F]  
 
 1|--3--| |--3--| |--3--|
 2|--0--| |--0--| |--0--|
 3|--0--| |--0--| |--0--|
 4|--0--| |-----| |--0--|
 5|--2--| |--2--| |--2--|
 6|--3--| |--2--| |--0--|

[D] [D2] [D3]  
 
 1|--2--| |--2--| |--3--|
 2|--3--| |--3--| |--3--|
 3|--2--| |--2--| |--2--|
 4|--0--| |--4--| |--0--|
 5|-----| |--0--| |--0--|
 6|-----| |-----| |-----|

[C] [C-C#] [Am7] [Bm]  
 
 1|--0--| |--0--| |-----| |--2--|
 2|--1--| |--1--| |--1--| |--3--|
 3|--0--| |--0--| |--0--| |--4--|
 4|--2--| |--2--| |--2--| |--4--|
 5|--3--| |--2--| |--0--| |--2--|
 6|-----| |-----| |-----| |--2--|

INTRO
[D]x4 [Am]x4 [G]x3 [G-G#] x3 [G-F]x8
[D2]x4 [Am]x4 [G]x3 [G-G#] x3 [G-F]x8 [D3]x8
VERSE 1
[D] I can't sleep tonight
[Bm] Everybody saying everything is alright
[D] Still I can't close my eyes
[Bm] I'm seeing a tunnel at the end of all these l[D]ights
BRIDGE
Sunny [Bm]days
[D] Where did you g[Bm]o
I g[C]et the str[C-C#]angest fe[Am7]eling you bel[D3]ong
CHORUS
[D] Why does it always r[Am]ain on me?
[G] Is it beca[G-G#]use I li[G-F]ed when I was seventeen?
[D] Why does it always [Am]rain on me?
[G] Even when th[G-G#]e sun is shining[G-F] I can't avoid the lightning
VERSE 2
Same as VERSE 1
BRIDGE
CHORUS 2
[D] Why does it always r[Am]ain on me?
[G] Is it beca[G-G#]use I li[G-F]ed when I was seventeen?
[D] Why does it always [Am]rain on me?
[G] Even when th[G-G#]e sun is shining[G-F] I can't avoid the lightning
[Bm] Oh, where did the go[D]od times go?
[Bm] And why is it ra[D]ining so?
[C] [C-C#] [Am7] It's so c[D3]old
This tab is like an acoustic version of the song
Maybe there are some mistakes in timming.
"

Important: The song above is NOT stored on the Chordie server. The original song is hosted at www.azchords.com. Chordie works as a search engine and provides on-the-fly formatting. Chordie does not index songs against artists'/composers' will. To remove this song please click here.

Text color:
Chord color:
Chord grids: 
Font size:    
Page size: 

Am Am7 Bm C D D2 D3 G
Rate #1 of 12 versions

Login - add to songbook

SHARE PAGE  




You need to log in to post comments